PrimaNota.ru - самый крупный в мире бесплатный архив песенных текстов, аккордов, табулатур и нот


Paco De Luca - Y Viva España - таба, видео

Регистрация Запомнить меня
Войти через:  Facebook Google Twitter Vk Yandex Mail.ru

Paco De Luca - Y Viva España - таба, видео

Печатать
Просмотров: 82
      Dm 
Entre toros, fandanguillos y alegrías, 
            C        A#         A7 
nació mi España, la tierra del amor, 
           Dm 
nunca Dios pudo igualar tanta belleza 
          C         A#         A7 
y es imposible que pueda haber dos. 
  

  A#                          A7 
España ha sido siempre y lo será 
  A#                 A7 
eterno Paraíso sin igual. 
  

    D    A7             D 
Por eso se oye este refrán, 
      Ebd  A7 
que viva España, 
   Em               A7 
y siempre la recordarán, 
    Am A7    D / G / A7 
que viiva España. 
  

    D    A7           D 
La gente canta con ardor, 
      Ebd  A7 
que viva España, 
   Em                A7 
la vida tiene otro color, 
  Em      A7   Dm / C / A# / A7 
España es la mejor. 
  

      Dm 
Que bonito es el mar Mediterráneo, 
          C      A#           A7 
la Costa Brava y la Costa del Sol. 
      Dm 
El fandango y la sardana me emocionan, 
               C        A#           A7 
porque en sus notas hay vida y hay calor. 
  
  

España ha sido siempre ... 
  
  

INTRODUCCIÓN: A#, A7, Dm, C, A#, A7 
  

CIFRADOS 

|-0---0-1-0-----------------------0-----------------------0--- 
|---3-------3-1-0-------0---0-1-3---1-----0-1-3--0-1---0--0--- 
|-----------------3-2-3-----------------3------------3----2--- 
|---------------------------------------------------------3--- 
  
  

  Entre toros fandanguillos y_alegrí_as nació mi_España, la tierra del amor. Nunca Dios 
|--------0-0---0--0---1--0------0--1-0---0----------------------------------------------- 
|-----1----------------------4-------------3----1---3-0---3--1---0-----1-0----------1---- 
|-3-----------------------------------------------------------------3---------3--3------- 
  
  

  pudo igualar tanta belleza y_es imposible que pueda haber dos. España_ha sido siempre_y 
|--0-0-0-0--1---0-----0--1-0--0------0-3------0--1--0----1---0---0--1--1----1-1--1-----0- 
|------------------4--------------4-------3------------3--------------------------------- 
|---------------------------------------------------------------------------------------- 
  
  

  lo será eterno para_iso sin igual. 
|--------------------------------0----- 
|--3--1-0-0-1--0----0-1-0-----0-------- 
|-----------------4--------4----------- 
  
  

  Por eso se_oye_este refrán, que viva España, y siempre la recordarán, que viva España. 
|-----0-0---2---4---2--0--------0--5-2-4--0----0--2----2--4--5-4--0-------0--4-5-4--2-0-- 
|--2----------------------2-----------------3-----------------------3-------------------- 
|---------------------------------------------------------------------------------------- 
  
  

  La gente canta con ardor que viva España, la vida tiene_otro color, España es la mejor. 
|-----0--0--2--4--2--0-------0--5-2-4--0--------2-2--4---5---4--0-----0--0--------------- 
|--2--------------------2----------------3---3--------------------3----------3---1--0---- 
|-------------------------------------------------------------------------------------3-- 
  
  

|--------------------0--- 
|---0-1-3-0-1---0----0--- 
|-3-----------3------2--- 
|-----------------3--3---
Добавлено: 08.03.2016
Вам также может быть интересно:
Другие материалы по этой песне:
  • Аккорды и текст

Страница создана 08.03.2016
http://primanota.ru/paco-de-luca/y-viva-espana-chords.htm
Привет, Гость.
Предлагаем пройти революционный курс по гитаре.
Подарок от PrimaNota.Ru, забирай!