PrimaNota.ru - самый крупный в мире бесплатный архив песенных текстов, аккордов, табулатур и нот


Paco De Luca - Taconeo Gitano - аккорды и текст, видео

Регистрация Запомнить меня
Войти через:  Facebook Google Twitter Vk Yandex Mail.ru

Paco De Luca - Taconeo Gitano - аккорды и текст, видео

Печатать
Просмотров: 118
Уроки эстрадного вокала в Санкт-Петербурге
Taconeo Gitano
Paco De Luca
E||--0-----------------|--0--------0--------|--------------------|
B||-----0-----------0--|-----0--------0-----|--4-----------------|
G||--------1-----1-----|--------1--------1--|-----2-----------2--|
D||-----------2--------|--------------------|--------4-----4-----|
A||--------------------|--------------------|--2-----------------|
E||--0-----------------|--0-----------------|-----------2--------|


                                                               
--------------------|--------------------|--------------------|
--4--------------4--|--2-----------------|--2--------------2--|
-----2--------------|-----2-----------2--|-----2--------------|
--------4-----4-----|--------2-----2-----|--------2-----2-----|
--2-----------------|--0--------4--------|--0--------4--------|
-----------2--------|--------------------|--------------------|


                                                               
--------------------|--------------------|--0-----------------|
--0-----------------|--0--------0--------|-----0-----------0--|
-----1-----------1--|-----1--------1-----|--------1-----1-----|
--------2-----2-----|--------2--------2--|-----------2--------|
-----------2--------|--------------------|--------------------|
--0-----------------|--0-----------------|--0-----------------|


                                                               
--0--------------0--|--------------------|--------------------|
-----4--2--0--2-----|--4-----------------|--4--2--0-----0--4--|
--------------------|-----2-----------2--|-----------2--------|
--------------------|--------4-----4-----|--------------------|
--------------------|-----------2--------|--2-----------------|
--0-----------------|--2-----------------|--------------------|


                                                               
--------------------|--------------------|--------------------|
--2-----------------|--2--0-----------2--|--0-----------------|
-----2-----------2--|--------2--1--2-----|-----1-----------1--|
--------2-----2-----|--------------------|--------2-----2-----|
--0--------4--------|--0-----------------|-----------2--------|
--------------------|--------------------|--0-----------------|


                                                               
--------------------|--5--0-----------0--|--9--7--5--4--2--5--|
--2--0-----0--------|--------2-----2-----|--------------------|
--------------1-----|-----------2--------|--------------------|
--------2--------2--|--------------------|--------------------|
--------------------|--0-----------------|--0-----------------|
--0-----------------|--------------------|--------------------|


                                                               
--4--0-----------0--|--7--5--4--2--0--4--|--2-----------------|
--------0-----0-----|--------------------|-----0-----------0--|
-----------1--------|--------------------|--------2-----2-----|
--------------------|--------------------|--1-----------------|
--------------------|--------------------|-----------2--------|
--0-----------------|--0-----------------|--------------------|


                                                                                
--5--4--2--0-----2--|--0--5--4--2--0-----|----------------|--0--5--4--2--0-----|
--0-----------4-----|-----------------4--|--2------4------|--0--------------4--|
--------------------|--------------------|--2------2------|--1-----------------|
--------------------|--------------------|--2------4------|--2-----------------|
--------------------|--------------------|--0------2------|--2-----------------|
--------------------|--------------------|----------------|--0-----------------|


                                                         
----------------|--0--------------|--------------7-9-11-|
--2------4------|--0--------0--2--|---------9-10--------|
--2------2------|--1--------------|--8-9-11-------------|
--2------4------|--2--------------|---------------------|
--0------2------|--2--------------|---------------------|
----------------|--0--------------|---------------------|


                                                                            
--12-11-9--------------|------------------|---------------|----------------|
----------12-10-9------|------------------|---------------|--2------4------|
------------------11-9-|--8-6-4-----------|---------------|--2------2------|
-----------------------|--------7-6-------|---------------|---------4------|
-----------------------|------------9-7-6-|--7------------|--0------2------|
-----------------------|------------------|---------------|----------------|


                                                                               
--0------------|--------------------|--------------------|--------------------|
--0------------|--------------------|--------------------|--------------------|
--1------------|-----1--------------|--------------------|--------------1--2--|
--2------------|--4-----4--2--1-----|--1-----------1-----|-----1--2--4--------|
--2------------|-----------------4--|--2--4--2--0-----2--|--4-----------------|
--0------------|--0-----------------|--------------------|--------------------|


                                                             
--------------------|--------------------|--2---------------|
--0-----------------|--------------------|--0---------------|
-----1-----------1--|-----1--------------|--2---------------|
--------2-----2-----|--4-----4--2--1-----|--1------4--1-----|
-----------2--------|-----------------4--|--2------------2--|
--0-----------------|--------------------|------------------|


                                                              
--------------------|-------------------|--------------------|
--------------------|--0----------------|-----------------0--|
--------------1--2--|-----1-------------|-----------1--2-----|
-----1--2--4--------|--------2----------|--1--2--4-----------|
--4-----------------|-------------2--4--|--------------------|
--------------------|--0----------------|--------------------|


                                                            
--------------------|--------------------|--0--------0-----|
--2--0--------------|-----------0--2--4--|--0-----------4--|
--------------------|-----1--2-----------|-----------------|
--------4-----1--2--|--4-----------------|-----------------|
--0--------4--------|--------------------|--2--------------|
--------------------|--------------------|--0--------------|


                                                               
--------------0-----|--------------------|--------------------|
--3--------------3--|--2-----------3--2--|--1-----------3--1--|
-----------1--------|-----------2--------|-----------0--------|
--------2-----------|--------2-----------|--------2-----------|
--------------------|-----0--------------|-----3--------------|
-----0--------------|--------------------|--------------------|


                                                               
--------------------|--------------------|--------------------|
--0-----------2--0--|--------------0--1--|--3--1--0--------0--|
-----------2--------|--3--2--1--2--------|-----------0--2-----|
--------1-----------|--------------------|--------------------|
-----2--------------|--------------------|--------------------|
--------------------|--------------------|--------------------|


                                                            
--------------------|--2--------------|-----------0--------|
--1--0--------------|--0--------------|--------2-----------|
--------2--0--------|--2--------------|-----1--------------|
--------------4--2--|--1-----------1--|--2-----------1-----|
--------------------|--2--------4-----|-----------------4--|
--------------------|-----------------|--------------------|


                                                               
-----------2--------|-----------0--------|-----------2--------|
--------0-----------|--------2-----------|--------0-----------|
-----2--------------|-----1--------------|-----2--------------|
-----------------1--|--2-----------1-----|--------------1--2--|
--2-----------4-----|-----------------4--|--2-----------------|
--------------------|--------------------|--------------------|


                                                               
--------------------|--0-----------------|--------------------|
-----------0--2--4--|-----4--2--0--------|--------------------|
-----1--2-----------|--------------2--1--|--------------------|
--4-----------------|--------------------|--4--2--1-----------|
--------------------|--------------------|-----------4--2--0--|
--------------------|--------------------|--------------------|


                                                               
--------0-----------|--0--4--2--0--------|--------------------|
-----0-----------2--|--0-----------4--2--|-----0--2--4--2--4--|
--------------2-----|--1-----------------|--------------------|
--------------------|--2-----------------|--------------------|
--------------------|--2-----------------|--2-----------------|
--4--------2--------|--0-----------------|--------------------|


                                                               
--0--4--2--0--------|--------------------|--0-----------------|
--0-----------4--2--|-----0--2--4--2--4--|--0-----------------|
--1-----------------|--------------------|--1--------------1--|
--2-----------------|--------------------|--2--2--2--2--4-----|
--2-----------------|--2-----------------|--2-----------------|
--0-----------------|--------------------|--0-----------------|


                                                                           
--0--------------|--------4-5-7-9-7-|--5-4-------------|------------------|
--2--------0--2--|--4-5-7-----------|------7-5-4-------|--4-2-0-----------|
--2--------------|------------------|------------6-4-6-|--------2-1-------|
--2--------------|------------------|------------------|------------4-2-1-|
--0--------------|------------------|------------------|------------------|
-----------------|------------------|------------------|------------------|


                                                                            
-----5--4--2--0-----|----------------|--0--5--4--2--0-----|----------------|
-----------------4--|--2------4------|--0--------------4--|--2------4------|
--------------------|--2------2------|--1-----------------|--2------2------|
--2-----------------|--2------4------|--2-----------------|--2------4------|
--------------------|--0------2------|--2-----------------|--0------2------|
--0-----------------|----------------|--0-----------------|----------------|


                                                              
--0----------------|--------------------|--------------------|
--0----------0-0-0-|--0--2--0-----0-----|--------------------|
--1----------------|--1--------2-----2--|--1--2--1-----1-----|
--2----------------|-----------4--------|--2--------4-----4--|
--2----------------|--------------------|--------------------|
--0----------------|--0-----------------|--0-----------------|


                                                              
--------------------|--2----------5-5-5-|-----7--5--4--5--4--|
--------------------|--0----------------|--0-----------------|
--------2--1--------|--2----------------|--------------------|
--2--4--------4--2--|--1----------------|--------------------|
--------------------|--2----------------|--------------------|
--------------------|-------------------|--------------------|


                                                               
--2--4--2--0--2--0--|--------------0--2--|--4--------4--------|
--0--------0--------|--4--2--0--4--------|--5-----------0-0-0-|
--2--------1--------|--------------------|--4-----------------|
--------------------|--------------------|--2-----------------|
--------------------|--0--------2--------|--2-----------------|
--------------------|--------------------|--0-----------------|


                                                               
--------------------|--------------------|--------------------|
--0-----------------|--------------------|--0-----------------|
-----2--1-----------|--------------1--2--|-----2--1--------1--|
-----------4--3--0--|-----1--3--4--------|-----------4--3-----|
--------------------|--4-----------------|--------------------|
--------------------|--------------------|--------------------|


                                                               
--------------------|--------0-----------|-----------------0--|
-----------------2--|-----2-----2--0-----|--------------2-----|
--------2-----3-----|--3--------------1--|--3-----------------|
-----4--------------|-----------4--------|--------4-----------|
-----------4--------|--------------------|-----4--------------|
--2-----------------|--2-----------------|-----------2--------|


                                                                               
--------0--------0--|--2------------|-----------0--------|--------------------|
--2--4-----2--4-----|--4------------|--2-----2-----2-----|--0-----0--2--0-----|
--------------------|--4------------|-----2-----------2--|-----1-----------1--|
--4--------4--------|--4------------|-----------2--------|-----------2--------|
--------------------|--2------------|--0-----------------|--------------------|
--------------------|---------------|--------------------|--0-----------------|


                                                               
--------------------|--------------------|-----------------0--|
-----------0--------|--------------------|--------0--2--4-----|
--2-----2-----2-----|--1-----------------|--1--2--------------|
-----4-----------4--|--------------2--4--|--------------------|
--2-----------------|--------2-----------|--------------------|
--------------------|--0--4-----0--------|--0-----------------|


                                                                              
--2--4--5--7--5----|--2--0--------------|---------------|--------------------|
-------------------|--0-----4--2--0-----|---------------|--2--------4--------|
-------------------|-----------------2--|--1------------|--------------------|
-------------------|--------------------|--2------------|-----4--1-----4--1--|
--0----------------|-----------2--------|--2------------|--------------------|
-------------------|--------------------|--0------------|--4-----------------|


                                                               
--------------------|--------------------|--------------------|
--0-----------------|-----------4--------|--2-----------------|
-----1--------------|--4-----------------|-----1-----1-----1--|
--------1--4--1--4--|-----4--1-----4--1--|--------2-----2-----|
--------------------|--------------------|--4-----------------|
--4-----------------|--4-----------------|--------------------|


                                                               
-----------0--------|--------------------|-----------2--------|
--2-----------------|--4-----------------|--4-----------------|
-----2--------2-----|-----2-----2-----2--|-----2--------2-----|
--------2--------2--|--------4-----4-----|--------4--------4--|
--4-----------------|--2-----------------|--2-----------------|
--------------------|--------------------|--------------------|


                                                               
--0-----------------|-----------4--2--0--|--2--0-----0--------|
-----0--------------|--------0--5--------|--4-----4--2--4--2--|
--------1-----1--2--|-----1--------------|--------------------|
-----------2--------|--------------------|--------------------|
--------------------|--------------------|--------------------|
--0-----------------|--0-----------------|--------------------|


                                                               
--------------------|--------0-----0-----|--4--0-----7--0-----|
--4--2--0--2--0-----|-----0-----0-----0--|--------0--------4--|
--4--------2-----2--|--1-----------------|--------------------|
--------------------|--2-----------------|--------------------|
--------------------|--------------------|--------------------|
--------------------|--------------------|--0-----------------|


                                                                  
--5--0-----------0--|-------------9---------|--8-----------------|
--------2-----2-----|--10-------------------|-----4-----------4--|
-----------2--------|------9---------9------|--------5-----5-----|
--------------------|---------11--------11--|-----------6--------|
--0-----------------|-----------------------|--------------------|
--------------------|-----------------------|--4-----------------|


                                                                  
--8--------11--------|--9-----------------|--9---------9---------|
-----9---------9-----|-----9-----------9--|-----10--------10-----|
--------8---------8--|--------9--6--9-----|---------9---------9--|
---------------------|--------------------|----------------------|
---------------------|--------------------|--0-------------------|
---------------------|--9-----------------|----------------------|


                                                                 
--11--------------11--|--9-------------9---|--8-----------------|
------7---------------|---------10---------|-----------------4--|
---------8-----8------|-------------9------|-----8--5-----5-----|
------------9---------|----------------11--|-----------6--------|
----------------------|--0-----------------|--------------------|
--7-------------------|--------------------|--4-----------------|


                                                               
--------------------|--------------------|--------------------|
--------------------|--------2--------2--|-----2--------2-----|
--5-----------------|-----2--------2-----|-----2-----1-----2--|
-----6-----------6--|-----------1--------|--2-----4-----------|
--------6-----6-----|--4-----------------|--------------------|
--4--------4--------|--------------------|--------------------|


                                                               
-----4--------4-----|-----4--------4-----|--------------------|
-----4--------4-----|-----4--------4-----|--------2--------2--|
--1-----5--------5--|--------5--------5--|-----2--------2-----|
--------------------|--6-----------------|-----------1--------|
--------------------|--------------------|--4-----------------|
-----------4--------|-----------4--------|--------------------|


                                                            
--------------------|-----4--------4-----|-----------------|
-----2--------2-----|-----4--------4-----|-----------------|
-----2-----1-----2--|--1-----5--------5--|-------5---------|
--2-----4-----------|--------------------|--6--------------|
--------------------|--------------------|-----------------|
--------------------|-----------4--------|----------4------|


                                                               
--------------------|--0-----------------|--------------------|
-----------0--2--4--|-----4--2--0-----2--|--0-----------0--2--|
-----1--2-----------|--------------2-----|--------1--2--------|
--------------------|--------------------|--1--4--------------|
--------------------|--------------------|--2-----------------|
--4-----------------|--------------------|--------------------|


                                                               
--------------------|--0-----------------|--------------------|
--4--2--0--------0--|--2--------------0--|--2--0--------------|
-----------2--1-----|--2--------1--2-----|--------2--1-----2--|
--------------------|--2--2--4-----------|--------------4-----|
--------------------|--0-----------------|--------------------|
--------------------|--------------------|--------------------|


                                                               
-----4--------4-----|--------------------|-----0--------0-----|
--------4--------4--|--------------------|--------2--------2--|
-----------5--------|--1--2--1-----------|-----------1--------|
--6-----------------|-----------4--2--1--|--------------------|
--------------------|--------------------|--4-----------------|
--4-----------------|--------------------|--------------------|


                                                               
-----0--4-----0--4--|--------------------|--------------------|
--------------------|--0-----------------|--0--2--0-----------|
--1--------2--------|-----2--------2-----|-----------2--1--2--|
--------------------|--------1--------1--|--------------------|
--------------------|--2-----------------|--------------------|
--------------------|-----------2--------|--------------------|


                                                               
--------------------|--------------------|--------0--------0--|
--0-----------------|--------------------|-----2--------2-----|
-----1-----------1--|-----------------1--|--2-----------------|
--------2-----2-----|--------1--2--4-----|--------------------|
-----------2--------|--2--4--------------|-----------0--------|
--0-----------------|--------------------|--------------------|


                                                                
--------------------|-----------------0--|--2--4--5--7--9--11--|
--------------------|--------0--2--4-----|---------------------|
--------------------|--1--2--------------|---------------------|
-----------1--2--4--|--------------------|---------------------|
--0--2--4-----------|--------------------|---------------------|
--------------------|--------------------|---------------------|


                                                                  
--12----12--12----12--|--12-11-9--------------|------------------|
----------------------|----------12-10-9------|------------------|
--13--------13--------|------------------11-9-|--8-6-------------|
--14--------14--------|-----------------------|------9-7-6-------|
----------------------|-----------------------|------------9-7-6-|
--0-------------------|-----------------------|------------------|


                                                              
-------------------|--------------------|--------------------|
--------0----------|--------2-----------|-----0--0-----------|
-------------------|-----2--------------|--------------------|
-----6-------------|--------------------|--------------------|
--7-------------2--|--0--------0--------|-----------------2--|
-------------4-----|--------------4--2--|--0--------0--4-----|


                                                              
--------------------|-------------------|--------------------|
--------2-----------|--------0----------|--------0-----------|
-----2--------------|-----1-------------|-----2--------------|
--------------------|-------------4--2--|--1-----------2--1--|
--0--------0--------|-------------------|-----------2--------|
--------------4--2--|--0----------------|--------------------|


                                                            
--------------------|--------------------|--0--------------|
-----0--0-----------|--------0-----------|--0--------------|
--------------------|-----2--------------|--1-----------1--|
--2-----------4--2--|--1-----------2--1--|--2--------2-----|
--------------------|-----------2--------|--2--------------|
-----------0--------|--------------------|--0--------------|


                                                                
---------------------|-----------0--------|--------------------|
--0---0-0-0-0--------|--------2-----------|--2--0--------------|
---------------1-----|-----1-----------1--|--------2--1--2--1--|
------------------2--|--------------2-----|--------------------|
---------------------|--4-----------------|--------------------|
---------------------|--------------------|--------------------|


                                                                
-----------2--------|---------------------|--------------------|
--------2-----0-----|---------------------|-----------0--------|
-----2-----------1--|--2---2-2-2-2--------|--------2--------1--|
--4-----------------|---------------4--1--|-----1--------4-----|
--------------------|---------------------|--2-----------------|
--------------------|---------------------|--------------------|


                                                                
--------------------|--------------0--2--|--4---4-4-4-4--2--0--|
--------------------|--------0-----------|---------------------|
--2--1--------------|-----1--------------|---------------------|
--------4--2--1--4--|--2-----------------|---------------------|
--------------------|--------------------|---------------------|
--------------------|-----------0--------|---------------------|


                                                               
--------------------|--4--2--0--2--0-----|-----0--4-----------|
--4-----------4--5--|-----------------4--|--2-----------2--4--|
-----5--------------|--------------------|-----------1--------|
--------6-----------|--------------------|--------------------|
-----------6--------|--------------------|--4-----------------|
--4-----------------|--------------------|--------------------|


                                                                
--0---0-0-0-0--------|-----------0--2--4--|--5--4--2--0-----2--|
---------------4--2--|--0--2--4-----------|--------------4-----|
---------------------|--------------------|--------------------|
---------------------|--------------------|--------------------|
---------------------|--2-----------------|--0--------2--------|
---------------------|--------------------|--------------------|


                                                               
--0-----------2--0--|--------------0-----|--------------0--5--|
-----0--------------|--3--------------3--|--2-----------------|
--------1-----------|--------------------|-----------2--------|
-----------2--------|-----------0--------|--------2-----------|
--------------------|--------0-----------|-----0--------------|
--0-----------------|-----2--------------|--------------------|


                                                               
--------------------|--------------------|--------------------|
--------------------|-----------------0--|--------------------|
--------2--0--------|--------------------|-----------2--1--2--|
-----2--------4--2--|--1--------1--4-----|-----2--4-----------|
--3-----------------|--------------------|--3-----------------|
--------------------|-----2--4-----------|--------------------|
Добавлено: 05.03.2016
Другие материалы по этой песне:
  • Аккорды и текст

Страница создана 05.03.2016
http://primanota.ru/paco-de-luca/taconeo-gitano-chords.htm
Привет, Гость.
Предлагаем пройти революционный курс по гитаре.
Подарок от PrimaNota.Ru, забирай!