PrimaNota.ru - самый крупный в мире бесплатный архив песенных текстов, аккордов, табулатур и нот


Paco De Luca - Sortilegio - таба, видео

Регистрация Запомнить меня
Войти через:  Facebook Google Twitter Vk Yandex Mail.ru

Paco De Luca - Sortilegio - таба, видео

Печатать
Просмотров: 104
E||--5--8--5--5--3--1--|--0--0-0-0-0--0-0-0-0----|--------------------|
B||--5--------4--------|-----0-0-0-0--0-0-0-0----|--------------------|
G||--5--0-----5--------|-----1-1-1-1--1-1-1-1----|--------------------|
D||--7-----3--3--------|-----2-2-2-2--2-2-2-2----|--------------------|
A||--0-----------------|-----2-2-2-2--2-2-2-2----|--0-----------------|
E||--------------------|--0--------0--------0----|-----4--3--2--1--0--|


                                                                        
--1----3----1----|--0--0-0-0-0--0-0-0-0----|---------------------------|
--1----1----1----|-----0-0-0-0--0-0-0-0----|--------------------6---10-|
--2----2----2----|-----1-1-1-1--1-1-1-1----|------------2---7-----7----|
--2----2----2----|-----2-2-2-2--2-2-2-2----|----0---3h0---3---9--------|
--3----3----3----|-----2-2-2-2--2-2-2-2----|------2--------------------|
--1----1----1----|--0--------0--------0----|--1------------------------|


                                                              
--1--1--1--0--0--0--|--1--3h1-0----0----|--1--1--1--0--0--0--|
--1--1--1--0--0--0--|--1------0----0----|--1--1--1--0--0--0--|
--2--2--2--1--1--1--|--2------1----1----|--2--2--2--1--1--1--|
--2--2--2--0--0--0--|--2------0----0----|--2--2--2--0--0--0--|
--0--0--0--2--2--2--|--0------2----2----|--0--0--0--2--2--2--|
-----------4--4--4--|---------4----4----|-----------4--4--4--|


                                                            
--1----------8-10-12-10-8----|-----------0-----------0-1-2-|
--1----10-12--------------12-|--10---------3-1-0-1-3-------|
--2--------------------------|-----12-10-------------------|
--2--------------------------|-----------------------------|
--0--------------------------|-----------------------------|
-----------------------------|-----------------------------|


                                                                    
--3--------1-----1--|--0--0-0-0-0--0-0-0-0----|--5-----5--4-----4--|
-----------------1--|--0--0-0-0-0--0-0-0-0----|-----5--5-----3--3--|
-----------------2--|--1--1-1-1-1--1-1-1-1----|-----5--5-----4--4--|
--------0--------1--|--2--2-2-2-2--2-2-2-2----|--------------------|
--2--3-----3--2--0--|--2--2-2-2-2--2-2-2-2----|--------------------|
--------------------|--0--------0--------0----|--5--------0--------|


                                               
--5--5-5-5-5--5-5-5-5----|--3-----3--1-----1--|
-----5-5-5-5--5-5-5-5----|-----3--------4-----|
-----5-5-5-5--5-5-5-5----|-----4--------2-----|
-----7-7-7-7--7-7-7-7----|--------------------|
--0--7-7-7-7--7-7-7-7----|--------------------|
-----5-5-5-5--5-5-5-5----|--3-----3--1-----1--|


                                                         
--0--12-12-12-12--12-12-12-12----|-----0----------------|
-----9--9--9--9---9--9--9--9-----|-----1--3--1--3-1-0---|
-----9--9--9--9---9--9--9--9-----|--2-----4--2--------2-|
-----9--9--9--9---9--9--9--9-----|--------------1-------|
---------------------------------|--0-------------------|
--0------------------------------|--------3--1----------|


                                                                           
-----0-0-0-0--0-0-0-0----|-----0----------------|-----0-0-0-0--0-0-0-0----|
-----0-0-0-0--0-0-0-0----|-----1--3--1--3h1-0---|-----0-0-0-0--0-0-0-0----|
--1--1-1-1-1--1-1-1-1----|--2-----4--2--------2-|--1--1-1-1-1--1-1-1-1----|
--2--2-2-2-2--2-2-2-2----|--------------1-------|--2--2-2-2-2--2-2-2-2----|
-----2-2-2-2--2-2-2-2----|--0-------------------|-----2-2-2-2--2-2-2-2----|
--0--0-0-0-0--0-0-0-0----|--------3--1----------|--0--0-0-0-0--0-0-0-0----|


                                                                        
----------0-1-3-1-0-------|---------------------|-----------8--7h5-----|
----0-1-3-----------3-1---|--0----0--3--1h0-----|-------10---------8-6-|
--2-------0-2-4-2-0-----2-|--0--------------2h0-|-------8------8-------|
----0-2-3-----------3-2---|--0----0-----0-------|--3-------------------|
--3---------------------3-|---------------------|-------8------8-------|
--------------------------|--3----3-----3-------|--1-------------------|


                                                              
--0--0-0-0--0-0-0--0--|--5-----------5-----4-----------4-----|
-----0-0-0--0-0-0--0--|------5-----5-----5-----3-----3-----3-|
-----1-1-1--1-1-1--1--|----5-----5-----5-----4-----4-----4---|
-----2-2-2--2-2-2--2--|--------------------------3-----2-----|
-----2-2-2--2-2-2--2--|--------3-----5-----------------------|
--0-------------------|--5-----------------0-----------------|


                                                            
--5-----------1-----|--3-----------3-----1-----------1-----|
-----5--5--------3--|------3-----3-----3-----1-----1-----1-|
-----5-----5-----1--|----4-----4-----4-----2-----2-----2---|
-----------7-----3--|--------------------------0-----1-----|
--0--------7--0-----|--------0-----2-----3-----------------|
--------5-----------|--3-----------------------------------|


                                                                         
--0-----------7-10-12----|--------------------|-----0-0-0-0--0-0-0-0----|
------0---5-9------------|-----------0--------|--1--1-1-1-1--1-1-1-1----|
--------7----------------|--------------0--4--|-----0-0-0-0--0-0-0-0----|
----6--------------------|--7-----------3--3--|-----2-2-2-2--2-2-2-2----|
-------------------------|--0--7--7-----2--2--|--3--3-3-3-3--3-3-3-3----|
--0----------------------|-----------3--------|-------------------------|


                                                                          
--0--------0--1h3h1-0-----|-----0-0-0-0--0-0-0-0----|--------------------|
-----3--1-------------3h1-|--0--0-0-0-0--0-0-0-0----|-----0-----------0--|
--------------------------|-----1-1-1-1--1-1-1-1----|--2-----2--0--2-----|
--------------------------|-----2-2-2-2--2-2-2-2----|-----2--2-----3--3--|
--3--2--0-----------------|-----2-2-2-2--2-2-2-2----|--0--------2--------|
-----------3--------------|--0--0-0-0-0--0-0-0-0----|--------------------|


                                                                 
-------------------------------|--------------------------------|
--1----0-1-3-1h0---------------|--------------------------------|
-----------------2-0-----------|------------------------0---0---|
---------------------3-2-0-----|-------------0-2-3--2-3---3---3-|
--3------------------------3-2-|-------0-2-3--------------------|
-------------------------------|--3--3--------------------------|


                                                                   
-----0-0-0-0--0-0-0-0----|--0-----------------|--------1----------|
-----0-0-0-0--0-0-0-0----|-----3--1--0--------|--------1----0--1--|
-----1-1-1-1--1-1-1-1----|--------------2--1--|--2-----2----------|
--2--2-2-2-2--2-2-2-2----|--------------------|--------3----------|
-----2-2-2-2--2-2-2-2----|--3--2--0-----------|-----3--3----2--0--|
-----------0--------0----|-----------3--1--0--|--1-----1----------|


                                           
--------------------|-----0-0-0-0----0----|
--0-----0-----------|-----0-0-0-0----0----|
-----2-----2--0--2--|--1--1-1-1-1----1----|
--------0-----------|-----2-2-2-2----2----|
-----2--------3-----|-----2-2-2-2----2----|
--3--------1--------|--0--------0----0----|


                                                   
----5-5-5---5-5-5---5-5-5---4-4-4---5-5-5---7-7-7-|
------------------5-------------------------------|
----------5-----------------------5-------5-------|
--------------------------------------------------|
--0-----------------------------------------------|
--------------------------0-----------------------|


                                                   
----8-7-7---5-5-5---5-5-5---5-5-5---5-5-5---5-5-5-|
------------------5-----------------------5-------|
----------5-----------------------5---------------|
--------------------------------------------------|
--0-----------------------------------------------|
--------------------------5-----------------------|


                                                   
----5-5-5---5-5-5---5-5-5---4-4-4---5-5-5---7-5-5-|
------------------5-----------------------3-------|
----------5-----------------------5---------------|
--------------------------------------------------|
--------------------------------------------------|
--5-----------------------0-----------------------|


                                                   
----8-7-7---5-5-5---5-5-5---5-5-5---5-5-5---5-5-5-|
------------------5-----------------------5-------|
----------5-----------------------5---------------|
--------------------------------------------------|
--------------------------------------------------|
--5-----------------------5-----------------------|


                                                   
--------------------------------------------------|
------------1-1-1---1-1-1---0-0-0---1-1-1---3-3-3-|
----5-5-5---------0-------------------------------|
----------2-----------------------2-------3-------|
--3-----------------------------------------------|
--------------------------3-----------------------|


                                                   
----0---------------------------------------------|
------3-3---1-1-1---1-1-1---1-1-1---1-1-1---1-1-1-|
------------------0-----------------------0-------|
----------2-----------------------2---------------|
--3-----------------------3-----------------------|
--------------------------------------------------|


                                                   
----3-3-3---1-1-1---0-0-0---3-3-3---1-1-1---0-0-0-|
--------------------------------------------------|
------------------0-----------------------0-------|
----------2-----------------------2---------------|
--3-----------------------3-----------------------|
--------------------------------------------------|


                                                   
--------------------------------------------------|
----3-3-3---3-3-3---3-3-3---3-3-3---3-3-3---3-3-3-|
--------------------------------------------------|
------------------0-----------------------0-------|
----------2-----------------------2---------------|
--3-----------------------3-----------------------|


                                                     
|-----5-5-5---5-5-5---5-5-5---3-3-3---5-5-5---7-7-7-|
|-------------------5---------------1-------3-------|
|*----------5---------------------------------------|
|*--------------------------------------------------|
|---0-----------------------------------------------|
|---------------------------0-----------------------|


                                                 
----8-7-7---5-7-7-0-8-8-8---8-8-8---7-7-7-0-5-5-|
------------------------------------------------|
----------5-----------------------5-------------|
------------------------------------------------|
--0-----------------------0---------------------|
------------------------------------------------|


                                                     
----7-7-7---5-5-5---3-3-3---5-5-5------------------||
----------0-------3-----------------3-3-3---4-4-4--||
----------------------------------2-------2-------*||
--------------------------------------------------*||
---------------------------------------------------||
--3-----------------------1------------------------||


                                                                         
----0-0-0---0-0-0---0-0-0---0-0-0---0-0-0---0-0-0-|--0--0-0-0--0-0-0----|
--------------------------0-------0---------------|-----0-0-0--0-0-0----|
------------------1-------------------------------|-----1-1-1--1-1-1----|
----------2-------------------------------2-------|-----2-2-2--2-2-2----|
--------------------------------------------------|-----2-2-2--2-2-2----|
--0-----------------------------------------------|-----0-0-0--0-0-0----|


                                                                           
-----------0--------------------|--------0-----0-----|--------------------|
-----0-1-3---3-1h0------0-3h1-0-|--1-----1-----1-----|--0-----0--0--1--3--|
--2-----------------1-2---------|--------2-----2--0--|--------0--0-----0--|
--------------------------------|-----2-----2--------|-----------3--------|
--0-----------------------------|--0-----------------|-----2--------------|
-----------------0--------------|--------------------|--3--------3--------|


                                                                    
--------------------|--------------------|-----0-0-0-0--0-0-0-0----|
--1-----1-----1-----|--------1--0--------|-----0-0-0-0--0-0-0-0----|
-----0-----0--2--3--|--2--------------2--|--1--1-1-1-1--1-1-1-1----|
-----2--------------|--------1--------1--|-----2-2-2-2--2-2-2-2----|
--3--------1--------|-----3--------3-----|-----2-2-2-2--2-2-2-2----|
--------------------|--1--------1--------|--0--0-0-0-0--0-0-0-0----|


                                                      
-----------0--------------------|--------0-----------|
-----0-1-3---3h1-0------0-3h1-0-|--1-----1-----0--1--|
--2-----------------1-2---------|--------2-----------|
--------------------------------|-----2-----2--------|
--0-----------------------------|--0-----------2--0--|
-----------------0--------------|--------------------|


                                                           
---------0----------------------|-----0-0-0-0--0-0-0-0----|
--0--0h1---3h1-0------0-3-2h0---|-----0-0-0-0--0-0-0-0----|
--0--------------2--2---------2-|--1--1-1-1-1--1-1-1-1----|
--0--------------1--------------|--2--2-2-2-2--2-2-2-2----|
-----------------3--------------|-----2-2-2-2--2-2-2-2----|
--3--------------1--------------|--0--0-0-0-0--0-0-0-0----|


                                                            
-----------------------------|-----------------------------|
------------0---1-0-3--1h0---|----------------0---1--0-----|
--2-----2h1---2------------2-|--0-----0---2-0---2------2h0-|
-----2-----------------------|-----0----4------------------|
--0-----0--------------------|-----------------------------|
-----------------------------|--3-----3--------------------|


                                                     
--------1h0----------7---------|--0-----0--0--1--0--|
------------8-6-10-8----10h8-6-|--------------------|
---------------------8---------|--------------------|
--3-----3----------------------|--------2--0--------|
-----3-------------------------|-----2--------3--2--|
--1----------------------------|--0-----------------|


                                                                 
--5----------------------------|--------------------------------|
--5------------1h0-3h1-0-------|----------------0---1h0---------|
--5--------4-2-----------2h0---|--0-----0---2-0---2-----2-0-----|
--7----7-6-------------------4-|-----0----4-----------------4h2-|
--7----------0-----------------|--------------------------------|
--5----------------------------|--3-----3-----------------------|


                                                           
--------------------------------|-----0-0-0-0--0-0-0-0----|
--------------------0-----------|-----0-0-0-0--0-0-0-0----|
------------0---2h0---2h0-------|-----1-1-1-1--1-1-1-1----|
--3-----3-2---3-----------3-2-1-|--2--2-2-2-2--2-2-2-2----|
-----3--------------------------|-----2-2-2-2--2-2-2-2----|
--1-----1-----------------------|--0--0-0-0-0--0-0-0-0----|


                                                                        
--5--------1h0---------------------|-----------------------------------|
-----5--5------3-1-0---------------|-------------0---------------------|
-----5--5------------2h0-----------|-----------2---2-0-----------------|
-------------------------3-2h0-----|---------2---------3-2-0-----------|
--0----------------------------3-2-|--0--0h3-----------------3-2-0-----|
-----------------------------------|-------------------------------3-2-|


                                                           
--------------------------------|-----0-0-0-0--0-0-0-0----|
--------------------------------|-----0-0-0-0--0-0-0-0----|
--------------------------------|-----1-1-1-1--1-1-1-1----|
-------------0h2-3------------0-|--2--2-2-2-2--2-2-2-2----|
-------0h2-3------------3-2h3---|-----2-2-2-2--2-2-2-2----|
--3--3--------------1h3---------|--0--0-0-0-0--0-0-0-0----|


                                                                               
--5-------5---7-------7---|--5--------------8------|--5-------5---7-------7---|
------5-----5-----9-----9-|-------5-10---12-10--9--|------5-----5-----9-----9-|
----5---5-------7---7-----|-----5------------------|----5---5-------7---7-----|
--------------------------|------------------------|--------------------------|
--0-----------------------|------------------------|--0-----------------------|
--------------------------|--5------0--------------|--------------0-----------|


                                                              
--5--------------8------|------------------------------------|
-------5-10---12-10--9--|--0---------------------------------|
-----5------------------|----2h0---0--2h0--------0-----------|
------------------------|--------4--------3-2-3----3-2-0-2-3-|
------------------------|------------------------------------|
--5---------------------|--3------------------1--------------|


                                                                 
-----0-0-0-0--0-0-0-0----|--------------------------------------|
-----0-0-0-0--0-0-0-0----|--0-1-0---0---------------------------|
-----1-1-1-1--1-1-1-1----|--------2---2-0-----------------------|
--2--2-2-2-2--2-2-2-2----|----------------3-2-0-3-2-0-----------|
-----2-2-2-2--2-2-2-2----|----------------------------3-2-0-----|
--0--0-0-0-0--0-0-0-0----|----------------------------------3-1-|


                                                                 
-------0----0----|--0-----------------|-------------------------|
-------0----0----|-----3--1--0--------|-----------0-1-----0--1--|
-------1----1----|--------------2--1--|--2------2---2-----------|
-------2----2----|--------------------|-------2-----------0-----|
-------2----2----|--3--2--0-----------|-----3----------3-----0--|
--0----0----0----|-----------3--1--0--|--1----------------------|


                                        
--------------------|------------0----||
--0-----0-----------|-------1----0----||
-----2-----2--0--2--|--1----0----1----||
--0--------1--------|--2----1----2----||
--------------------|------------2----||
--------------------|--0----1----0----||
Добавлено: 20.03.2016
Другие материалы по этой песне:
  • Аккорды и текст

Страница создана 20.03.2016
http://primanota.ru/paco-de-luca/sortilegio-chords.htm
Привет, Гость.
Предлагаем пройти революционный курс по гитаре.
Подарок от PrimaNota.Ru, забирай!