PrimaNota.ru - самый крупный в мире бесплатный архив песенных текстов, аккордов, табулатур и нот


Paco De Luca - Monasterios De Sal - таба, видео

Регистрация Запомнить меня
Войти через:  Facebook Google Twitter Vk Yandex Mail.ru

Paco De Luca - Monasterios De Sal - таба, видео

Печатать
Просмотров: 151
Уроки эстрадного вокала в Санкт-Петербурге
Desde aproximadamente dos años se tocar la guitarra pero solo hace un año
es que descubrí el flamenco, la cual es una rama de la guitarra española 
riquísimo en tonos y Paco de Lucia es mi interprete favorito así que quiero
compartir con el mundo esta canción la cual es una de mis favoritas. 
Si alguien tiene la tablatura completa de la Malagueña Salerosa de Paco 
por favor pasenla.

                                                           
E||--2-2-3-5-6-5-5--------2-2-|--3-5-6-5-5--------2-2-3-5-|
B||--------4------------------|----4--------------------4-|
G||--------7------------------|----7--------------------7-|
D||--------5------------------|----5--------------------5-|
A||---------------------------|---------------------------|
E||---------------------------|---------------------------|


                                                                       
--6-5-5----5-6-8-6-5-5-3-3-2-0-3-2-|---0-2-3-2-0--------8-------7-8-6-|
-----------------------------------|-------------3--------8-----------|
-----------3-----------------------|------------------------8---------|
-----------------------------------|--------------------------0-------|
-----------------------------------|----------------------------------|
-----------------------------------|----------------------------------|


                                                                   
---5--------10-------8-------7-8-6-|---5------6-5--6-5--6-5-------|
------7--------8-------8-----8-----|------7---8-7--8-7--8-7-------|
--------7--------8-------8---8-----|--------7-8-7--8-7--8-7--8-7--|
----------0--------0-------0-------|-------------------------0----|
-----------------------------------|------------------------------|
-----------------------------------|------------------------------|


                                                               
-----------------2-2-3-5-6-5-|---5------5-6-8-6-5-5-3-3-2-0-3-|
---4-3--4-3------------4-----|--------------------------------|
-----------------------7-----|----------3---------------------|
---0----0--------------5-----|--------------------------------|
-----------------------------|--------------------------------|
-----------------------------|--------------------------------|


                                                                      
--2-0-2-3-2-0--------0-2-5-3-2-|--0-0-2-3-2-0------8-7-5-3-2-0-0-2-3-|
--------------3----------------|-------------------------------------|
-------------------------------|--------------0----------------------|
-------------------------------|--------------8----------------------|
-------------------------------|--------------7----------------------|
-------------------------------|--------------6----------------------|


                                                             
--2-0--------2-2-3-5-6-5-5-2-|---5---5-5--5-5-6-8--10-8-8-5-|
------3------------8---------|---7---7-7--------11----------|
-------------------8---------|---5---5-5--------11----------|
-------------------5---------|---7---7-7--------8-----------|
-----------------------------|---6---6-6--------------------|
-----------------------------|------------------------------|


                                                                            
---8----8--8-------5-6-8-6-5-8-6--0-|----3-5-6-5-3-6-5------1-3-5-3-1-5-3--|
---10---10-10--7-8-------------8----|--6-------------5--3-4-------------3--|
---8----8--8-------------------7----|----------------5------------------3--|
---10---10-10------------------8----|----------------3------------------1--|
---9----9--9-------------------6----|----------------3------------------1--|
------------------------------------|--------------------------------------|


                                                                           
----1-3-1-0-------------------------|--------2-2-2-2-2-2---0-0-0-0-0------|
------------3-2---------------------|--------3-3-3-3-3-3---2-2-2-2-2------|
--------------0--------0-------0----|--------2-2-2-2-2-2---0-0-0-0-0------|
---------------------2---4-2-4---4--|--4-2-0-0-0-0-4-0-4-----2---2-0---0--|
--------------0--0-4----------------|--------0-0-0-------0---------2-4----|
------------------------------------|-------------------------------------|


                                                                             
--2---2-2-2-2-2---2---0-0-0-0-0------|---2---2-2-2-2-2-2-7---5---3-----3-5--|
--3---3-3-3-3-3---3---2-2-2-2-2------|---3---3-3-3-3-3-3---0---0---0--------|
--2---2-2-2-2-4-3-4---0-0-0-0-0------|---2---2-2-2-2-2---------------0------|
----4-0-0-0-0-----------2---0-----0--|-----4-0-0-0--------------------------|
--------------------0-------2---4----|--------------------------------------|
-------------------------------------|-------------------3---2---0----------|


                                                                       
-------5-----5---7---5-----3---3-5-|------5-----5--3--2-0---0-0-3-0---|
---3-----3-----0---0---0-----0-----|--3-----3------5------3---------3-|
-----2-----2-------------0---------|----2-----2----5------5-----------|
-------4-----4---------------------|------4-----4--5------------------|
-----------------------------------|----------------------------------|
-----------------3---2-------------|----------------------------------|


                                                                       
------------0-2-3--2-0---0-0-3-0---|----------------7---5---3-----3-5-|
---1------3-----5------3---------3-|---1----1-3---0---0---0---0-------|
----------5-----5------5-----------|----------------------------0-----|
--------4-------5------------------|------4-----0---------------------|
------0----------------------------|----------------------------------|
-----------------------------------|----------------3---2---0---------|


                                                                        
-------5-----5---7---5-----3---3-5-|-------5-----5--3--2-0---0-0-3-0---|
---3-----3-----0---0---0-----0-----|---3-----3------5------3---------3-|
-----2-----2-------------0---------|-----2-----2----5------5-----------|
-------4-----4---------------------|-------4-----4--5------------------|
-----------------------------------|-----------------------------------|
-----------------3---2-------------|-----------------------------------|


                                                                 
------0--2-3--2-0---0-0-3-0-0-----|--------------1-2--2-2-5-3-3-|
---1-------5------3-----------3-1-|-----------------------------|
------5----5------5---------------|-----------------------------|
------4----5----------------------|--4--------------------------|
----------------------------------|----0------------------------|
----------------------------------|--------------1-2------3-----|


                                                                     
---2------2-------2---0---0-5-3-3-|---2------2-------2-0------------|
------2-----2---2-------4---------|------2-----2---2---3--2-0-0-0---|
--------0-----0-------------------|--------0-----0-----4------6---0-|
----------4-----------------------|----------4---------5------5-----|
----------------------------------|---------------------------------|
---2----------------3-------3-----|---2-----------------------------|


                                                                 
---------------------------------|------------------------------|
---0------------------0----0-----|--------3--3-3-2-2-2-2-0-0-0--|
---0-3-0-----------5-----0-0-3-0-|--------4--4-4---4-4-4-0-0-3--|
-----4---4-------4-----------4---|---4-----------------------4--|
---------------0-----------------|------------------------------|
---------------------------------|------------------------------|


                                                                               
----------9-11-11-12-12-11-11-14-12--10-|---9----------------7-3-----5-9-5-7--|
----------7-9--9--10-10-9--9--12-10-----|---------------10-------3------------|
---0---------------------------------12-|---11----11-12-----------------------|
-----4----------------------------------|--------------------------0----------|
----------------------------------------|----------------------------0--------|
----------------------------------------|------------------3-------------4-3--|


                                                                             
---7-------5-9-5-7--7-3-----7-10-7-9--|---7-5----8----8-7-5-3-2-8-5-5-7-8-7-|
-----8------------------3-------------|----------7----7---------------------|
-------7------------------------------|----------5----5---------------------|
---------0----------------0-----------|-------------7---------0-------------|
-----------------------------------0--|-------7-----------------------------|
-----------5---4-3----------7----6----|-----------------------------3-------|


                                                                      
----5-3--6-----6-5-------7--7--|---5-3-2-0-6-----6-5-----0-5-0-0-2-3-|
---------4---------8-7---5--5--|---------------------8-7-------------|
---------3---0-8---------5--5--|-----------8---0-8-------------------|
---------------8---------------|-----------8-----8-------------------|
-----------3-----------0-------|-------------------------0-----------|
-------------------------------|-------------8-----------------------|


                                                                               
---2-0---2-2-2-2-2-2---0-0-0-0-0-----|----2---2-2-2-2-2---2---0-------0-------|
-------3-3-3-3-3-3-3---2-2-2-2-2-----|----3---3-3-3-3-3---3-----2-----2-------|
---------2-2-2-2-2-2---0-0-0-0-0-----|----2---2-2-2-2-4-3-4-------0-----0-----|
---------0-0-0-4-0-4-----2---2-0---0-|------4-0-0-0-0-----------------------0-|
---------0-0-0-------0---------2-4---|----------------------0-------2-----4---|
-------------------------------------|----------------------------------------|


                                                                           
--------2-----------------2-0---2-0-|-----------------------------------2-|
------3---3---------------3-----3---|---3--2------0-0---------------2-3---|
----2-------2-------------2-----2---|---4-------0-------------------4-----|
--------------0---------4-----------|-----------------------------2-------|
----------------0-----2-------1-----|---------------------------2---------|
------------------------------------|---------3--------3-2-1-0------------|


                                                                              
---0---0-------------0---0--------------|-------------0---------------1-0----|
-----3---3-2-3-2-0-2---2---2-0----------|-------1-0------4-3--------3--------|
-------2-----2-----------------2------2-|---3-------3-3-----------3--------3-|
-------2-----2-------------------2----2-|-------3----------------------------|
-------2-----2---------------------0----|-----------------------0------------|
----------------------------------------|-----1------------------------------|


                                                                   
-------------3---------3-2-0-2-3-2-|--0----5-----5--3--3-2-0-2-3--|
---2-----------3-------3-------3---|--3----3-----3--3--3-------3--|
------3-2--------3-----3-------3---|--3----3-----3--3--3-------3--|
-------------------2---------------|-----------2------------------|
---0----0------------0-------------|----0----0--------------------|
-----------------------------------|------------------------------|


                                      
--2-0----0-------3---3-2-0-2-3-2-0---|
----3----3-------3---3-------------3-|
----3------3---3-----3---------------|
-------------------------------------|
-------0-----0-----0-----------------|
-------------------------------------|


                                                                   
--0-2-5-2-3-2-0---0-2-5-2-3-2-0---0-2-5-2-3-2-0---0-2-5-0-2-5-2-0-|
----------------3---------------3---------------3-----------------|
------------------------------------------------------------------|
------------------------------------------------------------------|
------------------------------------------------------------------|
------------------------------------------------------------------|


                                                                           
----2-2-2-2-2-2-7---5---3-----3-5-----|---5-----5---7---5-----3---3-5-----|
--3-3-3-3-3-3-3---0---0---0-------3---|-----3-----0---0---0-----0-----3---|
----2-2-2-2-2-2-------------0-------2-|-------2-------------0-----------2-|
----0-0-0-----------------------------|---4-----4-------------------------|
--------------------------------------|-----------------------------------|
----------------3---2---0-------------|-------------3---2-----------------|


                                                                       
---5-----5--3--2-0---0-0-3-0------|---------0-2-3--2-0---0-0-3-0------|
-----3------5------3---------3--1-|-------3-----5------3---------3--1-|
-------2----5------5--------------|-------5-----5------5--------------|
---4-----4--5---------------------|-----4-------5---------------------|
----------------------------------|---0-------------------------------|
----------------------------------|-----------------------------------|


                                                                        
-------------7---5---3-----3-5-----|---5-----5---7---5-----3---3-5-----|
-------3---0---0---0---0-------3---|-----3-----0---0---0-----0-----3---|
-----5-------------------0-------2-|-------2-------------0-----------2-|
---4-----0-------------------------|---4-----4-------------------------|
-----------------------------------|-----------------------------------|
-------------3---2---0-------------|-------------3---2-----------------|


                                                                      

---5-----0-2-3-0---5-2---7-3---7-|---9---9---7-5-3-2-3-2-0---7-------|
-----3-3---------0-----2-------8-|-------------5-----2---------7-----|
-----------------------------0-7-|---10--10----6-----0-----------7---|
---4---------------------------9-|---11----------------------------0-|
---------------------------------|---11------------------------------|
---------------------------------|-------------5---------------------|


                                                                             
---6-7---7------7---6-7---7-----|---9-----7---7-0-----6-7--7--6-5-4-3-2-----|
---7-----5------5---5-----7-----|---7-----7-----------5-------------------2-|
---7-----6--6-0-6---6-----7---7-|-----7---7-------6-0-6-----------------2---|
----------------------------0---|-------0-----------------------------------|
-------0----------0-------------|-----------0-------------------------------|
--------------------------------|-------------------------------------------|


                                            
--2-----------2-------------------6-3-5----|
----2-------2---2---------------4----------|
------2---2-------2-----------3------------|
--------0-----------0----------------------|
----------------------0------------------0-|
----------------------------3---------2----|


                                                
---5---10-9-10-10--9-8-7-6-5-5---------3-6-3-5-|
---3---8-----------------------------3---------|
-----0-7-----------------------2---3-----------|
-----------------------------------------------|
-------7---------------------------------------|
---------------------------------3-----------6-|


                                                                          
---3-3-2-2-0-0---2-------2---------2-|---------3-2-2-----2---5-3-3-2-----|
-------------------3-----3---0-----3-|-------2-----3-0---2---0-----3-0---|
---------------------2---2-2---3-2---|---2---------------4---6-----------|
-----------------------4-------------|-----0-----------4---2-----------4-|
---------0---------------------------|-------------2---------------2-----|
-------------------------------------|-------0---------------------------|


                                                                            
-----2---2-3-0-2---2---1---1-2-2-2-2-|---4-2--2-2----5---------5-3-5-5-9-6-|
---0-3---------3---3---0-4---2-2-2-2-|---2-2--2-2------3-------3-----------|
-------0-------1---1---1-----2-2-2---|-------------------5---5-------------|
-----------------0-----------4-4-4---|---------------------4---------------|
---------------------4-------4-4-4---|-------------------------------------|
-------------------------------------|-------------------------------------|


                                                                            
---6---6-----6---6-5-3-1-0-6-3---------0-5-|------------1-0-1-5----3-------|
-------5-----5---5-------------------1-----|----------3--------------3-----|
-----3-----3-----3-------------------------|---------------------------3---|
---------5-------------------------3-------|--------3--------------------2-|
---------------3-----------------3---------|------1------------------------|
-------------------------------1-----------|-------------------------------|


                                                                          
---------1-5-8-5---8-5--------3--0--0-1-|-----0-1---0--1---0--1---0--1---|
-------1---------6-----6---6--3---------|---3-0---3------3------3------3-|
-------------------------5----3-----3---|-----------3------2------3------|
-----3----------------------------------|--------------------------------|
---1---------------8--------------------|--------------------------------|
----------------------------------------|--------------------------------|


                                                                      

---0--5-----5-3-6-3-5-6-5-3-1--------|--------------1-5-3--2--1----1-|
------5-----5--------------------4---|-----4--4-3-4-----1--1--1--4-3-|
---2--3---0-3--------------------2---|-----2------------2--2--2----2-|
-----------------------------------1-|-----1------------1--1--1----3-|
--------3---------------------3------|---3-------------------------1-|
------------------1------------------|-------------------------------|


                                                                                
---1----0-1-3-1---0--6-5-8-6-8-6-5-3-|---2--8-7-10-8-10-8-6-5-3--9-10-12-13-12-|
---3--3-----------0--5---------------|---2--7----------------------------------|
---2--4-----------0--6---------------|---2--8--------------------9-10-12-13-12-|
---3-----------------5---------------|---0--7----------------------------------|
----------------3--------------------|-----------------------------------------|
-------------------------------------|-----------------------------------------|


                                                              
--10-9--------10-12-14-12-10-14-12-12-10-9-12-10-9-10-10-9-7-|
-----------10------------------------------------------------|
--10-9-------------------------------------------------------|
-------------------------------------------------------------|
-------------------------------------------------------------|
-------------------------------------------------------------|


                                                                     
--10-9-7-10-9-7-9-7-5-9-7-5-7-5-3-7-5-3-5-3-2-5-3-2-3-2-0-3-2-0-----|
----------------------------------------------------------------3-2-|
--------------------------------------------------------------------|
--------------------------------------------------------------------|
--------------------------------------------------------------------|
--------------------------------------------------------------------|


                                                        
-------------0-2-5-2-0-------------------------------2-|
--0-2--0-2-3-----------3-2-0-------------------------3-|
-----------------------------2-0---------------------2-|
---------------------------------4-2-0---------------0-|
----0----------------------------------4-2-0-----------|
---------------------------------------------3-2-0-----|


                                                                        
---2-2-2-2-3-2-0-0-0-0-2-3-2-0-2--2-|---2-2-2-2-2--0---0--0-0-0-0-2--2-|
---3-3-3-3-------1-1-1---1---1-3--3-|---3-3-3-3-3------2--2-2-2-2-3--3-|
-----2-2-2-------0-------0---0-4----|-----4-4-4-4------0--0-0-0-0-2--2-|
-----0-0-0-------2-------2---2-4----|-----4-4-4-4-----------0---0-0--0-|
-------------------------------2----|-----2-2-2-2----2-----------------|
------------------------------------|----------------------------------|


                                                                            
---2-2-2-2-2-----2---0-----------------|---2-------2------0----------------|
---3-3-3-3-3-0---3-----2-----2---------|---3-------3--------2-----2--------|
---2-2-2-2-2---3-2-------0-----0-------|-----2-----4-3--------0-----0------|
---0-0-0-0-0-----------------------0---|-------4-0----------------------0--|
-------------------0-------2-----4-----|---------------0--------2-----4----|
---------------------------------------|-----------------------------------|


                                             
--------2---------------3-10-----10-7-10-9--|
------3---3-----------3----------8----------|
----2-------2------------------7------------|
--------------0-----------------------------|
----------------0------------7--------------|
--------------------------------------------|


                                            
--7-5--------5-7-9-10-11------10-----------|
---------7-8---------------------13-11-10--|
----------------------12------12-----------|
------7---------------13--13---------------|
----------------------13-------------------|
-------------------------------------------|


                                                                             
----6--------5---5-3-5-5----------5-3-|---3--3--2-0-0-2-3-2-2--2-5-2-0------|
--8---8-7----5---5--------8-7-7-8-----|------3------2------------------3--3-|
---------------3-------6------6-------|------3----------------------------2-|
-----------------------7--------------|-------------------------------------|
--------------------------------------|-------------------------------------|
--------------------------------------|-------------------------------------|


                                                                            
---------10-7-10-9--7-5--------5-7-9-|--10-11--10-11-8-10-6-5--3-6-3-2-----|
-------3-8-----------------7-8-------|---------------8---------------3-----|
-----4-------------------------------|-----12--12---------8----------------|
------------------------7------------|-----13------------------------------|
-------------------------------------|-----13------------------------------|
-------------------------------------|-------------------------------------|


                                                                       
---6---6-3-6-3-5-6-5--3-1----4---4-3-|---1-----4-1-3-4-3--1-----------|
---4---4---------------------3---3---|-----4-3--------------4-4-------|
-----3-----------------------1---1---|------------------------3-------|
-------------------------------3-----|------------------------1-------|
--------------------------3----------|-------1------------------------|
-------------1-----------------------|--------------------------------|


                                                                
---6-----6---6-5--3-1----4----4-|---3-1-----4-3-3--1-----------|
---4-------8-------------3----3-|-------4-2-----1----4-4-------|
---3---0-8---------------1----1-|---------------3------3-------|
---------8------------------3---|---------------1------1-------|
-----3----------------3---------|------------------------------|
---------------1----------------|------------------------------|


                                                                          
---5-----5-3-5-5----------5-3-3--3--|--2-0-0-2-3-2-2--2-5-2-0------------|
---3-----5--------8-7-7-8--------3--|------2------------------3--3-------|
---3-0-3-------6------6----------3--|----------------------------2-------|
---------------7--------------------|------------------------------------|
------------------------------------|------------------------------------|
------------------------------------|------------------------------------|


                                                                             
---5-----5-3-5-5----------5-3-3-2-0--|----------0-0-0-0-0-0-0----9----5-----|
---3-----5--------8-7-7-8-----2---2--|--2-0-2-0-2-2-2-2-2-2-2----8------7---|
---3-0-3-------6------6-------2---0--|--0-0-0-0-0-0-0-0-0-0-0----6--------7-|
---------------7------7--------------|--2-2-2-2-2-2-2-2-2-2-2---------------|
-------------------------------------|----------0-0-0-0-0-0-0---------------|
-------------------------------------|--------------------------------------|


                                                 
--0--------------------------0--2-2-2-2---2-7---|
--------0-0-0-------------------3-3-3-3-3-3---0-|
----7-6-------2-0-0-0-----------2-2-2---2-------|
----------------------4-2-0-----0-0-0-----------|
------------------------------------------------|
--------------------------------------------3---|


                                                                    
---5---3-----5------5-----5---7---|---5-----3---5------5-----5--3--|
-----0---0------3-----3-----0---0-|-----0-----0----3-----3------5--|
-----------0------2-----2---------|-------0----------2-----2----5--|
--------------------4-----4-------|--------------------4-----4--5--|
----------------------------------|--------------------------------|
---2---0----------------------3---|---2----------------------------|


                                                                         
--2--0---0-0-3-0-------------0-2-3--|---2-0---0-0-3-0-----------------7-|
-------3---------3--1------3-----5--|-------3---------3--1----1-3---0---|
-------5-------------------5-----5--|-------5---------------------------|
-------------------------4-------5--|-----------------------4-----0-----|
-----------------------0------------|-----------------------------------|
------------------------------------|---------------------------------3-|


                                                                       
-----5---3-----3-5-----5-----5---7-|-----5-----3---3-5-----5-----5--3-|
--0----0---0-------3-----3-----0---|--0----0-----0-----3-----3------5-|
-------------0-------2-----2-------|---------0-----------2-----2----5-|
-----------------------4-----4-----|-----------------------4-----4--5-|
-----------------------------------|----------------------------------|
-----2---0-----------------------3-|-----2----------------------------|


                                                                             
----2-0---0-0-3-0-------0--2-3--2-|-------0-0-------------------------------|
--------3---------3--1-------5----|---5-3-----4------4-5-4------------0---0-|
--------5---------------5----5----|-----5----------5-------5------------0---|
------------------------4----5----|--------------4----------------1-2-------|
----------------------------------|--------------------------2--------------|
----------------------------------|-----------------------------------------|


                                        	

--0-7---0------3----1-3-10-11-------13-|
------8---0------0---------0--------0--|
------------------------------12-10----|
---------------------------------------|
---------------------------------------|
---------------------------------------|


                                                                         
---------11-10--8--------8-6-------------|-------3-5--5--5--2-3--5--8-5-|
---------8-------------------8-10------8-|------------4--4--1-2--4--7-4-|
---12-10-10----------7-8----------8------|---6-3------2--2--------------|
---------9--------10----------------10---|------------------------------|
-------------------------------8-------6-|------------------------------|
-----------------------------------------|------------------------------|


                                                              
---5-3-3-2-2-3--5--2--3-5--3-2-|---2-0--2--2--2--2-3--5--8-5-|
---4-2-2-1-1-2--4--1--2-4--2-1-|---1----1--1--1--1-2--4--7-4-|
-------------------------------|-----3-----------------------|
-------------------------------|-----------0--0--------------|
-------------------------------|-----------------------------|
-------------------------------|-----------------------------|


                                                                
---5-3-3-2-2-3--5--2--3-5--3-2-|---2-0--2--2--2--2-3-5-7---5---|
---4-2-2-1-1-2--4--1--2-4--2-1-|---1----1--1--1--0-------0---0-|
-------------------------------|-----3-------------------------|
-------------------------------|-----------0--0----------------|
-------------------------------|-------------------------------|
-------------------------------|-----------------------3---2---|


                                                                    
---3-----5------5-----5---7---5---|-----3---5------5-----5--3--2-0-|
-----0------3-----3-----0---0---0-|-------0----3-----3------5------|
-------0------2-----2-------------|--0-----------2-----2----5------|
----------------4-----4-----------|----------------4-----4--5------|
----------------------------------|--------------------------------|
---0----------------------3---2---|--------------------------------|


                                                                        
----0-0-3-0-------------0-2-3--2-0-|-----0-0-3-0-----------------7---5-|
--3---------3--1------3-----5------|---3---------3--1----1-3---0---0---|
--5-------------------5-----5------|---5-------------------------------|
--------------------4-------5------|-------------------4-----0---------|
------------------0----------------|-----------------------------------|
-----------------------------------|-----------------------------3---2-|


                                                                     
----3-----3-5-----5-----5---7---5-|------3---3-5-----5----8-----8-7-|
--0---0-------3-----3-----0---0---|--0-----0-----3------------7-----|
--------0-------2-----2-----------|----0-----------2--------5-----0-|
------------------4-----4---------|------------------4----7---------|
----------------------------------|---------------------------------|
----0-----------------------3---2-|---------------------------------|


                                              
------7-6---0-6-5-3-2----0-2-3-5-7-8-----8-7-|
----8------------------3---------------7-----|
--7-------6--------------------------5-----0-|
-----------------------------------7---------|
--------0------------------------------------|
---------------------------------------------|


                                              
------7-6---0-6-5-3-2----0-2-3-5-7-8-----8-7-|
----8------------------3---------------7-----|
--7-------6--------------------------5-----0-|
-----------------------------------7---------|
--------0------------------------------------|
---------------------------------------------|


                                             
------7-6-----6-5-----5-4-----4-3-----3-2-2-|
----8-------5-------6---------------4---2-2-|
--7-------6-------5---------7-----3-----2-2-|
----------------3---------6-----1-------2-2-|
--------------------------------------------|
--------8---------------6-------------------|


                                                                    
------5-10-12-14-12-10-14-12-12-10-9-12-10-9-10-10-9-7-10-9-7-10-9-|
-------------------------------------------------------------------|
-------------------------------------------------------------------|
-------------------------------------------------------------------|
-------------------------------------------------------------------|
-------------------------------------------------------------------|


                                                              
--7-9-7-5-9-7-5-7-5-3-7-5-3-5-3-2-5-3-2-3-2-0-3-2-0----------|
----------------------------------------------------3-2-0-2--|
-------------------------------------------------------------|
-------------------------------------------------------------|
----------------------------------------------------------0--|
-------------------------------------------------------------|


                                                                           
--------0-2-5-2-0------------------------------2--2-2-|------------------||
--0-2-3-----------3-2-0------------------------3--3-3-|------------------||
------------------------2-0--------------------2--2-2-|------------------||
----------------------------4-2-0--------------0--0-0-|------------------||
----------------------------------4-2-0--------0--0-0-|------------------||
----------------------------------------3-2-0---------|------------------||
Добавлено: 20.03.2016
Другие материалы по этой песне:
  • Аккорды и текст

Страница создана 20.03.2016
http://primanota.ru/paco-de-luca/monasterios-de-sal-chords.htm
Привет, Гость.
Предлагаем пройти революционный курс по гитаре.
Подарок от PrimaNota.Ru, забирай!