PrimaNota.ru - самый крупный в мире бесплатный архив песенных текстов, аккордов, табулатур и нот


Paco De Luca - Malagueña - таба, видео

Регистрация Запомнить меня
Войти через:  Facebook Google Twitter Vk Yandex Mail.ru

Paco De Luca - Malagueña - таба, видео

Печатать
Просмотров: 85
Ke onda LOCOOS XD ea soy el MEX
Bueno pues sigo aportando rolas esta cancion puede tocarse con
el acompañamiento normal de la Malagueña seria un gran rekinto hehe

                 Facil
=O Dificultad :  Intermedio
               ->Avanzado<-
                 Dificil


INTRO
e-7--7--5--5--3--3-2---|2-2--x-2-2-|-5--5-3--3-2--2-0-|0-0--x-0-0-
B--0-----0-----0-------|0-0--x-0-0-|--0----0----0-----|0-0--x-0-0-
G---0-----0-----0------|2-2--x-2-2-|---0----0----0----|0-0--x-0-0-
D----------------------|1-1--x-1-1-|------------------|2-2--x-2-2-
A----------------------|2-2--x-2-2-|------------------|2-2--x-2-2-
E-0-----0-----0----0---|0-0--x-0-0-|-0----0----0----0-|0-0--x-0-0-


e-|-3--3-2--2-0--0---|2-2--x-2-2-
B-|--0----0----0---2-|0-0--x-0-0-
G-|---0----0----0----|2-2--x-2-2-
D-|------------------|2-2--x-2-2-
A-|------------------|2-2--x-2-2-
E-|-0----0----0----0-|0-0--x-0-0-


e-0--0-----------------|0-0--x-0-0-|---0--0--0--0--0--0--
B--0-----3--3-1--1-0---|0-0--x-0-0-|---------------------
G---0-----0----0-------|0-0--x-0-0-|---------------------
D----------0----0------|2-2--x-2-2-|---------------------
A----------------------|2-2--x-2-2-|-2--3--2--0----------
E-0-----0-----0----0---|0-0--x-0-0-|-------------3--2--0-

e-|2-2-2-2-x--2-
B-|0-0-0-0-x--0-
G-|2-2-2-2-x--2-
D-|1-1-1-1-x--1-
A-|2-2-2-2-x--2-
E-|0-0-0-0-x--0-

e|0-0-x--0-0--
B|0-0-x--0-0--
G|0-0-x--0-0--
D|2-2-x--2-2--
A|2-2-x--2-2--
E|0-0-x--0-0-- X2

JAAA Ahora si empiesa lo bueno

e-7-7-7-7-7--7--7-7-7-7-7-7-7-8-8-8-8-8-8-8-7s>10-12-10-
B-8--------10-8---7-------------9---9-------------------
G-9---------------9-------------10--10------------------
D-9---------------9-------------10--10------------------
A-------------------------------------------------------
E-------------------------------------------------------


e--10876-7-8-10-8-7--------8-7------------
B--------------------7-8-10---10-8-7------
G-------------------9---------------9-7---
D--------------------------------------10-
A-----------------------------------------
E-----------------------------------------


e-7-7-7-7-7--7--7-7-7-7-7-7-7-8-8-8-8-8-8-8-7s>10-12-13-12-
B-8--------10-8---7-------------9---9----------------------
G-9---------------9-------------10--10---------------------
D-9---------------9-------------10--10---------------------
A----------------------------------------------------------
E----------------------------------------------------------


e-1010-12-10-8-7-8-7--7-7...-----|
B--------------------------------|
G--------------------------------|
D--------------------------------|
A--------------------------------|
E--------------------------------|


e..8-7-5-8-7-5-8-7-5-8-7-5--77-5-5h7-3-2-3---0-3s>12-12-10-10-
B-------------------------------------------------------------
G-------------------------------------------------------------
D-------------------------------------------------------------
A-------------------------------------------------------------
E-------------------------------------------------------------

e1210-12-10-8-7-8-7-----7-8-7--8-7..|
B-------------------8-10-----10-----|
G-----------------------------------|
D-----------------------------------|
A-----------------------------------|
E-----------------------------------|

e7-7-8-7-5-8-7-5-8-7-5-8-7-5--77-5-5h7-3-2-3-7-----7--------------
B--------------------------------------------8-10-8-10-8-8h10p8-7-
G--------------------------------------------9--------------------
D--------------------------------------------9--------------------
A-----------------------------------------------------------------
E-----------------------------------------------------------------

e---5-5-5-5-------10----------------|
B---6------8-7-8-8--8--7-5-7--5h7-4-|
G---7-------------------------------|
D---7-------------------------------|
A-----------------------------------|
E-----------------------------------|

e--------------------------------------------7-7-5-5h7-3-2-3----|
B---------------------------------------------------------------|
G----4-5-4-5-4--4-4--5-4-2-5-4-2-5-4-2-5-4-2--------------------|
D-5-7-----7-----------------------------------------------------| ___
A---------------------------------------------------------------|--- |
E---------------------------------------------------------------|   ||

e-7-----7--------------5-5-5-5-------10----------------|            ||
B-8-10-8-10-8-8h10p8-7-6------8-7-8-8--8--7-5-7--5h7-4-|            ||
G-9--------------------7-------------------------------|            ||
D-9--------------------7-------------------------------|            ||
A------------------------------------------------------|
E------------------------------------------------------| repite arriba


e--3-3-7--3-3-7--3-3-7-5-3-5---2-2-5--2-2-5--2-2-5-3-2-3---|
B-5-5----5-5----5-5-----------3-3----3-3----3-3------------|
G----------------------------------------------------------|
D----------------------------------------------------------|
A----------------------------------------------------------|
E----------------------------------------------------------| x2

Este Piqueo se hace rapido

e-0-2-3-2--------------|---0---------0---------0-|---0--0--0--0--0--0-
B--------3-1-0---------|---0---------0---------0-|--------------------
G-------------2-0------|---1---------1---------1-|--------------------
D----------------4-2-1-|---2---------2---------2-|--------------------
A----------------------|2--2-3-5-3-2-2-3-5-3-2-2-|-2--3--2--0---------
E----------------------|---0---------0---------0-|-------------3--2--0


e|2-2-2-2--x--2-|0|
B|0-0-0-0--x--0-|0|
G|2-2-2-2--x--2-|0|
D|1-1-1-1--x--1-|2|
A|2-2-0-0--x--2-|2|
E|0-0-0-2--x--0-|0|


ESO es todo asi es como la saco yo, tiene algunos arreglos
que le puse Dudas, quejas, sugerencias, consejos
regaños, mentadas XD esas aka --> kraken_x1@
Saludos desde Morelia,Michoacán, México

OJO: el ritmo es Huapango


SALUDOS desde Morelia Michoacan Mexico
DANIELAA niña moxxa te quieroo
Добавлено: 08.03.2016
Другие материалы по этой песне:
  • Аккорды и текст

Страница создана 08.03.2016
http://primanota.ru/paco-de-luca/malaguena-chords.htm
Привет, Гость.
Предлагаем пройти революционный курс по гитаре.
Подарок от PrimaNota.Ru, забирай!