PrimaNota.ru - самый крупный в мире бесплатный архив песенных текстов, аккордов, табулатур и нот


Paco De Luca - Lucía - таба, видео

Регистрация Запомнить меня
Войти через:  Facebook Google Twitter Vk Yandex Mail.ru

Paco De Luca - Lucía - таба, видео

Печатать
Просмотров: 49
Bueno, para poder sacar esta canción, primero
hay que escucharla, porque tiene muchos silencios
y para poder agarrar bien el ritmo.

rapido
CV-----------------------

1|-----------5-----------|
2|---------5---5---------|
3|-------5-------5-------|
4|-----5-----------5-----|
5|---7---------------7---|
6|-8-------------------8-|

1|---------------0-----0-----0-----0-----0|
2|-------------1-----1-----1-----1-----1--|
3|---------0-2-----4-----2-----0----------| ->sigue
4|---0-2-4---------------------------4----|   Abajo
5|-3--------------------------------------|
6|----------------------------------------|

1|-----0-----0-----------------|
2|---1-----1-------------------|
3|-0---------------------------|
4|-------4-----4h5p4-4h5p4-4p2-|
5|-----------------------------|
6|-----------------------------|

1|--------------------------------------------|
2|-----1-----1-----1-----1-----1------1-----1-|
3|---0-----0-----0-----0-----0------0-----0---|-> sigue
4|-------4-----2-----4-----2------4-----2-----|   Abajo
5|-3------------------------------------------|
6|--------------------------------------------|

1|----------------------------------------|
2|-----1-----1-----1-----1-------------1--|
3|---0-----0-----0-----0-------------0----|
4|-4-----2-----4-----2-----0h2p0---2------|
5|-------------------------------3--------|
6|----------------------------------------|

1|-------|
2|-0h1p0-|
3|-------|
4|-------|
5|-2h3p2-|
6|-------|

Acompañamiento "A" que hace la 2da guitarra:

1|---0---0---0---0---0---0---0---0---0--0---0---0---|
2|---0---0---0---0---0---0---0---0---0--0---0---0---|
3|---------2-----------2-----------0----------0-----|
4|-----4-----------4-----------4----------4---------|
5|-3-----------3-----------3-----------3------------|
6|--------------------------------------------------

1|---0---0---0---0---0---0---0---0---0---0---0---0---|
2|---0---0---0---0---0---0---0---0---0---0---0---0---|
3|---------4-----------4-----------4-----------4-----|
4|-----4-----------4-----------4-----------4---------|
5|-2-----------2-----------2-----------2-------------|
6|---------------------------------------------------|

Ahora, el solo de la 1era guitarra, acompañado por
el acompañamiento (A) que ya les deje:

1er Guitarra:
1|-0h2-0-2-3-3h5p3-2h3p2--0h2h3p2-0-2-3-3h5p3-2h3p2-0-2-0---|
2|--------------------------------------------------------4-|
3|----------------------------------------------------------|
4|----------------------------------------------------------|
5|----------------------------------------------------------|
6|----------------------------------------------------------|

Ahora comienza otro tipo de acompañamiento (B)
ques es con el rasguido mientras sigue el solo.

   Am

1|----7-8-10-10h12-8p7----7-10h12-|
2|-10------------------10---------|
3|--------------------------------|
4|--------------------------------|
5|--------------------------------|
6|--------------------------------|

            B7
1|-12-12-12h14--11-11p8p7|
2|-----------------------|
3|-----------------------|
4|-----------------------|
5|-----------------------|
6|-----------------------|

   Am                                                B7
1|----7-8-10h12-15-15h14-14-14h12-12-12p11-11-11p8-8-8p7-|
2|-10----------------------------------------------------|
3|-------------------------------------------------------|
4|-------------------------------------------------------|
5|-------------------------------------------------------|
6|-------------------------------------------------------|

   Am                                               B7
1|-8-7-------------------------7-10-10h12-11-12-12h14---|
2|-----10-8-7h8p7---8---7-8-10--------------------------|
3|----------------9---9---------------------------------|
4|------------------------------------------------------|
5|------------------------------------------------------|
6|------------------------------------------------------|


1|-11-11p8p7----------|
2|-----------10-7-7---|
3 --------------------|
4|--------------------|
5|--------------------|
6|--------------------|

           Am
1|--------7h8p7-7h8p7-7h8p7-7h8p7-7h8p7-7h8p7-7h8p7-7h8p7-|
2|-7-8-10-------------------------------------------------|
3|--------------------------------------------------------|
4|--------------------------------------------------------|
5|--------------------------------------------------------|
6|--------------------------------------------------------|

                     B7
1|-10-10h12-11-12-11-11h12p11-11h12p11-11h12p11-11h12p11--|
2|--------------------------------------------------------|
3|--------------------------------------------------------|
4|--------------------------------------------------------|
5|--------------------------------------------------------|
6|--------------------------------------------------------|

                                Am
1|-12-12h14-12-11--------------------------------|
2|----------------12-12p10-10-12-12p10-8-8p7---8-|
3|-------------------------------------------9---|
4|-----------------------------------------------|
5|-----------------------------------------------|
6|-----------------------------------------------|

                              B7
1|----------7-10-10h12-11-11-8-8-7-8-7h8p7--|
2|---7-8-10---------------------------------|
3|-9----------------------------------------|
4|------------------------------------------|
5|------------------------------------------|
6|------------------------------------------|

           Am                                      B7
1|--------7h8p7-----------------7-10-10h12-11-11-8-8-7-8-7h8p7|
2|-7-8-10-------10-8-7---7-8-10-------------------------------|
3|---------------------9--------------------------------------|
4|------------------------------------------------------------|
5|------------------------------------------------------------|
6|------------------------------------------------------------|
Ahora viene un solo de bajo que va
acompañado con unos arreglos que hace la
1er guitarra

Bajo:
   Em                           D
1|-----------------------------------------|
2|-1-1p0-----------------------------------|
3|-----------------0-2-4-2-4-2-0-2---------|
4|-----------0-2-4-----------------4-2-4-0-|
5|-------2-3-------------------------------|
6|-----------------------------------------|


Guitarra:

1|----------7-8-10h12-10-12-10h12p10-8-10-8h10p8|
2|---7-8-10-------------------------------------|
3|-9--------------------------------------------|
4|----------------------------------------------|
5|----------------------------------------------|
6|----------------------------------------------|

Bajo:

      C                                B7
1|--------------------------------------------------|
2|-1---0--------------------------------------------|
3|---2---2-0-------0--------------------------------|
4|-----------4-2-4---2--2---2---2---2---2-1-1h2p1---|
5|------------------------3---2---3---2-----------2-|
6|--------------------------------------------------|

Guitarra:

1|-------8-10-8-10h12-11-12-13-14-|
2|-0-0-0--------------------------|
3|--------------------------------|
4|--------------------------------|
5|--------------------------------|
6|--------------------------------|

Bajo:

   Em                                   D
1|----------------------------------------|
2|----------------------------------------|
3|-2h4-2-4-2---------------0-----0-----0--|
4|-----------4-2-----0-2-4---2-4---2-4---4|
5|---------------2-3----------------------|
6|----------------------------------------|

Guitarra:

1|-10p8p7-|
2|--------|
3|--------|  X 10
4|--------|
5|--------|
6|--------|

Bajo:

   C                           B7
1|-----------------------------------|
2|-----------------------------------|
3|-----0-----0-0h2-0-0---------------|
4|-4-2---4-2-----------4-4-2-2-2p1---|
5|---------------------------------2-|
6|-----------------------------------|

Guitarra:

1|----------7h8p7-------------7-8-10h12-11|
2|---7-8-10-------10-8-7-8-10-------------|
3|-9--------------------------------------|
4|----------------------------------------|
5|----------------------------------------|
6|----------------------------------------|

1er guitarra:

  CV--------------------------
1|-5---------------5------------|
2|---5---------------5----------|
3|-----5---------------5--------|
4|-------7---------------7------|
5|---------7---------------7----|
6|-----------5---------------5--|

  CII-----------rasguido----
1|-5-----------------------2----|
2|---4-------------------4------|
3|-----2---------------2--------|
4|-------4-----------4----------|
5|---------2-------2------------|
6|-----------2---2--------------|

  CV------------------------
1|-----------5---5--------------|
2|---------5-------5------------|
3|-------5-----------5----------|
4|-----7---------------7--------|
5|---7-------------------7------|
6|-5-----------------------5----|

  CII------------------------
1|-----------2--------------2---|
2|---------4--------------4-----|
3|-------2--------------2-------|
4|-----4--------------4---------|
5|---2--------------2-----------|
6|-2--------------2-------------|

Solo de guitarra:

Am            B7       Am           B7
1|-2-0-2-3-3h5-2----0h2h3p2-0-2-3-5-2|
2|-----------------------------------|
3|-----------------------------------|
4|-----------------------------------|
5|-----------------------------------|
6|-----------------------------------|

          Am
1|---------------------------------|
2|-7-8-10-12-12-12-12-12-10h12-12--|
3|---------------------------------|
4|---------------------------------|
5|---------------------------------|
6|---------------------------------|

                                B7
1|-10-10-8-12-12-11-12h14-14-12-15-14-12-14-11h12p11---------|
2|---------------------------------------------------12h13p12|
3|-----------------------------------------------------------|
4|-----------------------------------------------------------|
5|-----------------------------------------------------------|
6|-----------------------------------------------------------|

          Am                                          B7
1|--------7-7-7-7----7--------7-7-7-7----7----7-8-10-8-8-8p7----7|
2|-7-8-10---------10---7-8-10---------10---10----------------10--|
3|---------------------------------------------------------------|
4|---------------------------------------------------------------|
5|---------------------------------------------------------------|
6|---------------------------------------------------------------|

1|-----0-----0-----0-----0-----0-----0-----0-----0-----0-----0--|
2|---1-----1-----1-----1-----1-----1-----1-----1-----1-----1----|
3|-4-----2-----0-----------0-----2-----4-----2-----0------------|
4|-------------------4-----------------------------------4------|
5|--------------------------------------------------------------|
6|--------------------------------------------------------------|
                  CII------
1|-----0---------------------|
2|---1-----------------------|
3|------------------------2--|
4|-2-----2-2p1----------4----|
5|-------------2------2------|
6|------------------2--------|

1|-----0-----0-----0-----0-----0-----0-----0-----0-----0-----0--|
2|---1-----1-----1-----1-----1-----1-----1-----1-----1-----1----|
3|-4-----2-----0-----------0-----2-----4-----2-----0------------|
4|-------------------4-----------------------------------4------|
5|--------------------------------------------------------------|
6|--------------------------------------------------------------|

 CII------
1|-----0---------------------|
2|---1-----------------------|
3|------------------------2--|
4|-2-----2-2p1----------4----|
5|-------------2------2------|
6|------------------2--------|

 Am                                              B7
1|--------------------7-10-10h12-11-12-11-12-11-8-7-|
2|---7-7h8p7---7-8-10-------------------------------|
3|-9---------9--------------------------------------|
4|--------------------------------------------------|
5|--------------------------------------------------|
6|--------------------------------------------------|


1|-----------|
2|---7-7h8p7-|
3|-9---------|   X5
4|-----------|
5|-----------|
6|-----------|

  Am
1|--------------7-10-10h12-11-12h14-12-15-|
2|-8-7---7-8-10---------------------------|
3|-----9----------------------------------|
4|----------------------------------------|
5|----------------------------------------|
6|----------------------------------------|

                              B7
1|-14-12-10-12-14-15-14-12-15-14-12-11-8-8-8-7-5-7---|
2|---------------------------------------------------|
3|---------------------------------------------------|
4|---------------------------------------------------|
5|---------------------------------------------------|
6|---------------------------------------------------|

   Am                                        B7
1|-8-7-5-7-2h3p2---------------------------------|
2|---------------3-1-0-1-1p0---1p0---------------|
3|---------------------------2-----2-0-----------|
4|-------------------------------------4-2-0-----|
5|-------------------------------------------3-2-|
6|-----------------------------------------------|

   C                                                        B7
1|-----------------------------------------------------7-10-12|
2|----------------------------------------8p7---7-8-10--------|
3|------------------------------------7-9-----9---------------|
4|-------------7-9-7-9-7-------7-9-10-------------------------|
5|------7-9-10-----------10-10--------------------------------|
6|-8-10-------------------------------------------------------|


1|-11-12-12-12-12-12p11-11-11p8-8-8p7|
2|-----------------------------------|
3|-----------------------------------|
4|-----------------------------------|
5|-----------------------------------|
6|-----------------------------------|

 C  --muy rapido--
1|-7----10-8-|
2|---10------|
3|-----------|  X10
4|-----------|
5|-----------|
6|-----------|

                   B7
           ---muy rapido----------------------------------
1|-12-12-12-12h13h14h15h16h17h18h19--->sigue hasta el final
2|---------------------|               de la boca de la
3|---------------------|               guitarra...
4|---------------------|
5|---------------------|
6|---------------------|

   --muy rapido----------  Am
1|-19p18p17p16p15p14p13p12----7h8p7----7-7-7------------|
2|-------------------------10-------10-------10-8---8-10|
3|------------------------------------------------9-----|
4|------------------------------------------------------|
5|------------------------------------------------------|
6|------------------------------------------------------|

                                    B7
1|------7-8p7----------7-8-10h12-11-12-11-12-12-12-|
2|-8-10-------10-8-7-8-----------------------------|
3|-------------------------------------------------|
4|-------------------------------------------------|
5|-------------------------------------------------|
6|-------------------------------------------------|


1|-12-12-12-12-12-12-12p11-11-11-11p-8-8-8p7|
2|------------------------------------------|
3|------------------------------------------|
4|------------------------------------------|
5|------------------------------------------|
6|------------------------------------------|
Am                                      B7
1|--------7--------7-10-8-8----7-8-10h15-15-15-15p-14-14-12-12p11-8-7----7|
2|---8-10-----8-10----------10----------------------------------------10--|
3|-9--------9-------------------------------------------------------------|
4|------------------------------------------------------------------------|
5|------------------------------------------------------------------------|
6|------------------------------------------------------------------------|


Bueno, yo la termine en este compas, para ser más especifico
minuto 4:50, porque cada vez va bajando mas el volumen y es
imposible sacarlo y además queda mejor.
Espero que les guste, desde Bragado, saludos
Добавлено: 08.03.2016
Другие материалы по этой песне:
  • Аккорды и текст

Страница создана 08.03.2016
http://primanota.ru/paco-de-luca/lucia-chords.htm
Привет, Гость.
Предлагаем пройти революционный курс по гитаре.
Подарок от PrimaNota.Ru, забирай!