PrimaNota.ru - самый крупный в мире бесплатный архив песенных текстов, аккордов, табулатур и нот


Paco De Luca - La Pantera Rosa - таба, видео

Регистрация Запомнить меня
Войти через:  Facebook Google Twitter Vk Yandex Mail.ru

Paco De Luca - La Pantera Rosa - таба, видео

Печатать
Просмотров: 94
/-------------------------------------------------------------------------
/-------------------------------------------------------------------------
/-------------------------------------------------------------------------
/----------------------------------------------3/2-------2/1---0----------
/---------------------------------2/3------2/3--------0/3----------3-0---0
/2/3-4/5-----2/3--4/5----2/3-4/5------4/5------------------------------3--


/---------------------------------------------------------------------------
/---------------------------------------------------------------------------
/---------------------------------------------------------------------------
/----------------------------------------------3/2-------2/1----0-----------
/-------------------------------2/3------2/3--------0/3-----------3-0-----0-
/2/3-4/5---2/3--4/5----2/3-4/5------4/5---------------------------------3---


/-5----------------/---------------/-------------/---------------
/---8--5-----------/---------------/-------------/---------------
/--------7-5---5--7/---8--8--8--8--/---7--5--0---/---7--5--0-----
/------------6-----/---------------/----------7-7/-----------7-7-
/------------------/---------------/-------------/---------------
/------------------/---------------/-------------/---------------


es muy facil yo la saque con facilidad
Добавлено: 08.03.2016
Другие материалы по этой песне:
  • Аккорды и текст

Страница создана 08.03.2016
http://primanota.ru/paco-de-luca/la-pantera-rosa-chords.htm
Привет, Гость.
Предлагаем пройти революционный курс по гитаре.
Подарок от PrimaNota.Ru, забирай!