PrimaNota.ru - самый крупный в мире бесплатный архив песенных текстов, аккордов, табулатур и нот


Paco De Luca - Guajiras De La Lucía - таба, видео

Регистрация Запомнить меня
Войти через:  Facebook Google Twitter Vk Yandex Mail.ru

Paco De Luca - Guajiras De La Lucía - таба, видео

Печатать
Просмотров: 113
Уроки эстрадного вокала в Санкт-Петербурге
           
guitarra (Capo 1)


                                          
E||----0-----2-----3-----0-----2-----3---|
B||------2-----2-----2-----2-----2-----2-|
G||--------------0-----------------0-----|
D||--------2-----------------2-----------|
A||--1-----------------1-----------------|
E||--------------------------------------|


                                                                              
----2-----2-----2-----2-----2-----2---|----2-----4-----5-----2-----4-----5---|
------3-----3-----3-----3-----3-----3-|------3-----3-----3-----3-----3-----3-|
--------------4-----------------4-----|--------------2-----------------2-----|
--------4-----------------4-----------|--------4-----------------4-----------|
--2-----------------2-----------------|--2-----------------2-----------------|
--------------------------------------|--------------------------------------|


                                                                              
----4-----4-----4-----4-----4-----4---|----4-----5-----7-----9-----9-----9---|
------3-----3-----3-----3-----3-----3-|------3-----3-----6-----6-----6-----6-|
--------------4-----------------4-----|--------------7-----------------7-----|
--------2-----------------2-----------|--------2-----------------6-----------|
--------------------------------------|--------------------------------------|
--0-----------------0-----------------|--0-----------------0-----------------|


                                                      
--9h7h5-----------5---5-7-|--9-7-5-------------------|
--------5-------5---9-----|--------9-7-5-7-9-7-5-----|
----------6---6-----------|----------------------7-6-|
------------7-------------|--------------------------|
--------------------------|--------------------------|
--5-----------------------|--------------------------|


                                                      
--------------------------|---------5--------5----0--|
----5---------------------|-------5--------5---------|
--7---7-6-----------------|-----6--------6-----------|
----------9-7-6-----------|--------------------7-----|
----------------9-7-5-----|-----------7--------------|
----------------------9-7-|--5-----------------------|


                                                                              
----0-----0-----0-----0-----0-----0---|--0-------0-----0-----0-----0-----0---|
------3-----3-----3-----3---3-----3---|--3---------2-----2-----2-----2-----2-|
--------------------3---------3-----3-|--3-----------------2-----------2-----|
--3-----5-----7-----------7-----5-----|--7h5h3-------2-----------2-----------|
--------------------------------------|--------0-----------------------------|
--------------------------------------|--------------------------------------|


                                                                              
----0-----0-----0-----0-----0-----0---|--------------------------------------|
------0-----0-----0-----0-----0-----0-|----------2-----2-----2-----2-----2---|
--------------------1-----------------|------------2-----2-----2-----2-----2-|
--0-----2-----4-----------4-----2-----|--4h2h0-------------------------------|
--------------------------------------|--------4-----------4-----------4-----|
--------------------------------------|--------------5-----------4-----------|


                                                                    
------------------------------0-------|----------0-0-------0-0-----|
----2-----------1-----------0---3h2h0-|--------2---------2---------|
------2---2-------2-------1-----------|------2---------2-----------|
------------4-----------0-------------|----------------------4h-3--|
--------4-------------2---------------|--0---------4---------------|
--2-----------1-----0-----------------|----------------------------|


                                                                       
--------------------|-----0-------0-------0---|-----------------------|
-----0--2--3h-0-----|-----2-------2-------2---|-----0--2--3h2h0-----0-|
-----1--1--1-----1--|-----2-------2-------2---|-----1--1--1-----2h1---|
-----0--0--0--------|---------2h1---4-2h------|-----0--0--0-----------|
--------------------|--0----4-----------4---4-|-----------------------|
--0--------0--------|-------------------------|--0--------0-----------|


                                                                 
----0---------------------|--------------------|----------------|
----2---------------------|--------------7/-9/-|--10------------|
------2---------4h2-------|-----------7--------|--9-------------|
------------4h2-----4h2---|--------6-----------|--7-------------|
--0-----4h0-------------4-|-----7--------------|--0-------------|
--------------------------|--0-----------------|--9-------------|


                                                        
------------------------|-----------------------7-9-10-|
------------------------|----------------7-9-10--------|
------------------------|------------7-9---------------|
------------------0-----|-----7-9-11-------------------|
----4h2-0---0-2-4---7-9-|--11--------------------------|
----------4-------------|------------------------------|


                                                                                
--12h10-9-------------------------|-----------------------|-----------------5--|
----------12-10-9-----------------|-----------------------|--------------7-----|
------------------11-9------------|-----------------------|-----------6--------|
-----------------------12-11-9----|-----------------------|--------7-----------|
--0----------------------------12-|--11h-9----------------|-----0--------------|
----------------------------------|---------12--10h-9--7--|--5-----------------|


                                                             
--------------------|------------------|--------------------|
--------------7h-9--|------------6--7--|--------------7/-9--|
-----------7--------|---------7--------|-----------7--------|
--------6-----------|------------------|--------6-----------|
-----7--------------|--0---------------|-----7--------------|
--0-----------------|------------------|--0-----------------|


                                                                           
---------5--------5----0--|--------------------|--0------0--------0----0--|
-------5--------5---------|--------------2--3--|-------2--------2---------|
-----6--------6-----6-----|--2--2--2--4--------|-----2--------2-----------|
-----------7--------------|--2--------2--------|--------------------2-----|
--0-----------------------|--0-----------------|--0--------4--------------|
--------------------------|-----------4--------|--------------------------|


                                                                  
-----0--2--2h-0-----|--0--------0-----0-----|--------------------|
--3--------3-----3--|---------2-------2-----|--------------4--5--|
--4-----------------|-------2---------2-----|--4--4--4--6--------|
-----------0--------|--------------2--------|--4--------4--------|
--------------------|--0--4--------------0--|--2-----------------|
--4-----------------|-----------------------|-----------6--------|


                                                                      
-----------------------|---------------------|-----------------------|
--7--------7-----7-----|-----7--11--9h-7-----|--7--------7-----7-----|
---------8-------8-----|--7---------------9--|---------8-------8-----|
-------9---------9-----|--8------------------|-------9---------9--0--|
-----9-----------------|--7------------------|-----9-----------------|
--7-----------7-----9--|---------------------|--7-----------7--------|


                                                                  
-----------------2--|--4--------4-----------|--4-----4-----------|
--2--2--2--3h-5-----|---------6-------6--7--|--------6-----9h-7--|
--1--------2--------|-------6---------------|--------6-----7-----|
--3--------4--------|-----6-----------------|-----6--------7-----|
--4--------2--------|--4-----------4--------|--4-----------0-----|
--------------------|-----------------------|-----------7--------|


                                                                         
---------------------------|-------------------5--|--7-----7------------|
--9-----------9-----9------|--5--------5-6h-8-----|--------9-----9--10--|
-----------10-------10-----|---------4---5--------|--------7------------|
--------11----------11--0--|-------6--------------|-----------9---------|
-----11----------9---------|-----7-------5--------|-----7---------------|
--9------------------------|--0-------------------|--0------------------|


                                                                       
--7-----7-----7h-5--|--7--------7-----7-----|--7-----------7--10--14--|
--------9-----6-----|---------9-------9-----|-------7-9-10------------|
--------7-----5-----|-------9---------------|-----9-------------------|
-----9--------7-----|-----------------------|-------------------------|
--7--------5--------|-----7--------------9--|-------------------------|
--------------------|--0-----------0--------|--0----------------------|


                                                                    
--12h-10--9------9--12--|--10-----------9h-7--|--------------5-----|
-------------10---------|---------------------|-----------7-----7--|
------------------------|---------------------|--------6-----------|
------------------------|---------------9-----|-----7--------------|
--0---------------------|------7--8--7--------|--0-----------------|
------------------------|--0------------------|--------------------|


                                                                           
--4-----4--2-----2--|------------0---0-2-4-5-4-|--2h0---------------------|
--5--5-----3--3-----|----------2---3-----------|------3-2-0---------------|
--------------------|--------2-----------------|------------2-1-----------|
--6--------4--------|------2-------------------|----------------4-2-0-----|
--------------------|--0h4---------------------|----------------------4-2-|
--------------------|--------------------------|--------------------------|


                                                                
---------------0-----|---------------------|----------------0--|
---------------------|---------------7/-9--|-------------7-----|
---------------------|------------7--------|----------6--------|
--------0--4-2h---4--|---------6-----------|-------7-----------|
--0h-4---------------|-----6h7-------------|--0----------------|
---------------------|--0------------------|-------------------|


                                                                       
--------------------|---------5--------5----0--||---------2-----------|
--------------7h-9--|-------5--------5---------||---2h-3-----5h-3--2--|
-----------7--------|-----6--------6-----6-----||*--2--------2--------|
--------6-----------|-----------7--------------||*--------------------|
-----7--------------|--0-----------------------||---0--------4--------|
--0-----------------|--------------------------||---------------------|


                                                                          
-----------------0--|--2--5--4--2h4h2-0-----|---------0--------0----0---||
--0-----0--2h-3-----|--3-----------------3--|--2----2--------2----------||
--------------------|--0--------------------|-----2--------2-----------*||
-----0--------------|--0--------------------|--0-----------------2-----*||
--------------------|-----------------------|-----------4---------------||
--4-----------------|-----------0-----------|---------------------------||


                                                      
--3h0-----------0-2-3-5-3-|--2------2--------2----0--|
------2-------2-----------|-------3--------3---------|
--------0---0-------------|-----2--------2-----------|
----------2---------------|--0--------4--------0-----|
--0-----------------------|--------------------------|
--------------------------|--------------------------|


                                                      
--1h0-------------0-1-3-1-|--0------0--------0----0--|
------3---------3---------|-------2--------2---------|
--------4-----4-----------|-----2--------2-----------|
--3-------0h3-------------|--------------------2-----|
--------------------------|--0--------4--------------|
--------------------------|--------------------------|


                                                                          
--2h0-------0-2h4h2-0-------|-------------0-------|----------------------|
------3---3-----------3-2-0-|-----------1---1-----|----------1-0-------0-|
--------4-------------------|-------2---------2---|--------2---------1---|
----------------------------|---------------------|------3---------2-----|
----------------------------|--0------------------|----------------------|
--4-------------------------|-------------------3-|--1---------0---------|


                                                                   
---------0--------0-------|--------------------|------------------|
-------2--------2---------|-----0--2--3h-0-----|---------------7--|
-----2--------2-----------|-----1--1--1-----1--|------------6-----|
--------------------4h-2--|-----0--0--0--------|---------7--------|
--0--------4--------------|--------------------|--0---------------|
--------------------------|--0--------0--------|------------------|


                                                                             
--------------------|---------5--------5----0--||---9h5-----------5---5-7-9-|
--------------7h-9--|-------5--------5---------||-------5-------5---9-------|
-----------7--------|-----6--------6-----6-----||*--------6---6-------------|
--------6-----------|-----------7--------------||*----------7---------------|
-----7--------------|--0-----------------------||---0-----------------------|
--0-----------------|--------------------------||---------------------------|


                                                               
--10-----------10-----------|--10--------7-9-10-12-10-9----10-|
-----9-------9----9-------9-|-----7-9-10----------------12----|
-------7---7--------7---7---|---------------------------------|
----------------------9-----|---------------------------------|
---------7------------------|---------------------------------|
--0-------------------------|---------------------------------|


                                                         
--9----------9-----12--0---||--9----------9-----9-------|
----------10-------10------||----------10-------10------|
--------9----------9------*||--------9----------9-------|
-----11-------------------*||-----11----------------11--|
--0-------------0----------||--0-------------0----------|
---------------------------||---------------------------|


                                                                           
--9----------------9-------9-10-12-|--14h12-10----------------10----10----|
----10----------10---10-12---------|-----------10----------10----14----14-|
-------12----12--------------------|--------------11----11----------------|
----------11-----------------------|-----------------12-------------------|
--0--------------------------------|--------------------------------------|
-----------------------------------|--10----------------------------------|


                                                                   
-------------------------------9-10-|--12h10-9--------------9--0--|
--12----------------12-9-10-12------|----------10--------10-------|
-----10----------10-----------------|-------------9----9----------|
--------12----12--------------------|---------------11------------|
-----------11-----------------------|-----------------------------|
--0---------------------------------|--0--------------------------|


                                                         
--9h5-----------5---5-7-9-|--10h7---0---0-12h0----0---0-|
------5-------5---9-------|-------9---7--------10---7---|
--------6---6-------------|-----------------------------|
----------7---------------|-----------------------------|
--0-----------------------|-----------------------------|
--------------------------|--0--------------------------|


                                                        
--10h7---0-12h0----0-10h7---0-|--------------------12--|
-------9--------10--------9---|--10------------10------|
------------------------------|-------------9----------|
------------------------------|---------11-------------|
------------------------------|------0-----------------|
------------------------------|------------------------|


                                                                            
--11------11--10------10--|--9---------------9--|--8----------8-7--------7-|
--10------10--9-------9---|--------------10-----|----------10----------9---|
------11----------10------|-----------9---------|--------8-----------7-----|
--10----------9-----------|-----6--7------------|-----10-----------9-------|
--------------------------|--0------------------|--8------------7----------|
--------------------------|---------------------|--------------------------|


                                                               
--------------5-----|--4-----4--2-----2--|--0-----------2--0--|
-----------7-----7--|--5--5-----3--3-----|-----------2--------|
--------6-----------|--------------------|--------2-----------|
-----7--------------|--6--------4--------|-----2--------------|
--0-----------------|--------------------|--0-----------------|
--------------------|--------------------|--------------------|


                                                                 
--------------0-----|--------------------|----------------------|
--3--------3-----3--|--1--------1--3--1--|--0--------0----------|
--------4-----------|--------2-----------|---------0---2h-0-----|
-----0--------------|-----2--------------|-------0-----------3--|
--------------------|--0-----------------|-----2----------------|
--4-----------------|--------------------|--3----------1--------|


                                                                       
--0----------------------|-----------0--0--0--|---------------------0-|
---------------------0-2-|--3--3--3-----------|--2h--0--------0-2-3---|
-----------------1-2-----|--------------------|--------2--1-2---------|
-----------0-2-4---------|--------------------|-----------------------|
-----0-2-4---------------|--2-----------------|--0--------------------|
--0----------------------|-----------4--------|-----------------------|


                                                                  
--2h-1--2--4h-2--4--|--5-----5------------0-|--2h-1--2--4h-2--4--|
-----------3--------|--2-----2------0-2-3---|-----------3--------|
--------------------|-----2-----1-2---------|--------------------|
--1--------2--------|-----------------------|--1--------2--------|
--------------------|--0--------------------|--------------------|
--------------------|-----------------------|--------------------|


                                                                      
--5h-4--5--7h-6--7--|--9h-7--9-------------|-----------------12------|
--2--------6--------|--7--------12h-10--9--|--10---------10----------|
--------------------|----------------------|----------9--------------|
-----------6--------|--7-------------------|------11-----------------|
--0-----------------|----------------------|--0------------------10--|
--------------------|-----------0----------|-------------------------|


                                                                       
--11t------10t------|--9t------------0-2-5-|--2h0---------------------|
--10t------9t-------|--10t-----0-2-3-------|------3-2-0---------------|
--11t------10t------|--9t------------------|------------2-1-4h1-------|
--------9-----------|--7t------------------|--------------------2-0---|
-----------------0--|----------------------|------------------------2-|
--------------------|----------------------|--------------------------|


                                                              
---------------0-----|--------------------|------------------|
---------------------|--------------7h-9--|---------------7--|
---------------------|-----------7--------|------------6-----|
--------0--1-2h---4--|--------6-----------|---------7--------|
--0h-4---------------|-----7--------------|--0---------------|
---------------------|--0-----------------|------------------|


                                                                     
--------------------||-----------------------|---------------------||
--------------7h-9--||------7h5h7--7h5h7--5--|-----5h-3-----5h-3---||
-----------7--------||*-----6------6------6--|--------------------*||
--------6-----------||*-----7------7------7--|-----6--------6-----*||
-----7--------------||---0-------------------|---------------------||
--0-----------------||-----------------------|--0--------0---------||


                                                                   
----------------------|--------------4h-2--|----------------------|
-----7h5h7--7h5h7--5--|-----4h-2--4--------|-----5h4h5--5h4h5--5--|
-----6------6------6--|-----2-----2--------|-----4------4------4--|
-----7------7------7--|--------------------|-----6------6------6--|
--0-------------------|--2--------2--------|----------------------|
----------------------|--------------------|--0-------------------|


                                                                         
--------------2h-0--|----------------------||---4h2h0---2h0-----0-------|
-----2h-0--2--------|-----3h2h3--3h2h3--3--||---------3-----3h2---3h2h0-|
-----0-----0--------|-----2------2------2--||*--------------------------|
--------------------|--0-------------------||*--0-----------------------|
--0--------0--------|----------------------||---------------------------|
--------------------|----------------------||---------------------------|


                                                                       
-----------------------||----------------------||------4h-2-----4h-2--|
-----2h1h2--2h1h2--2---||-----3h2h3--3h2h3--3--||------3--------3-----|
-----1------1------1--*||-----2------2------2--||*-----4--------4-----|
-----3------3------3--*||-----4------4------4--||*-----------2--------|
--4--------------------||--5-------------------||---------------------|
-----------------------||----------------------||---0-----------------|


                                                                     
-----0h2h0--0h2h0--0---||--------------------|----------------------|
-----2------2------2---||-----5h-3-----5h-3--|-----2h3h2--2h3h2--2--|
-----2------2------2--*||-----2--------2-----|-----2------2------2--|
----------------------*||-----------4--------|-----2------2------2--|
--0--------------------||--------------------|--0-------------------|
-----------------------||--2-----------------|----------------------|


                                                                       
--------------------|---------0--------0--------|-----------4h-2------|
-----2h-0-----2h-0--|-------2--------2----------|-----5h-3--3-----5h3-|
-----2--------1-----|-----2--------2------------|-----2---------------|
-----0--------0-----|---------------------------|-----------4---------|
--------------------|--0--------4--------2h-0---|---------------------|
--1--------0--------|-------------------------4h|--2------------------|


                                                                       
-----------0--2h0-----|--------------0h2h0-------|-----------------1--|
-----2h-0---------3h2-|--------0-2-3-------3h0---|--------------1-----|
-----2----------------|------1-----------------1-|-----------2--------|
-----2--------0-------|----0---------------------|--------2-----------|
--0-------------------|--------------------------|--0h-3--------------|
----------------------|--0-----------------------|--------------------|


                                                                                
--0--------0----------|--0----------------------|-----------------------7-9-10-|
---------0---4-----4--|-------------------------|----------------7-9-10--------|
-------0-----------2--|-------------------------|------------7-9---------------|
-----0----------3-----|-------------------0-----|-----7-9-11-------------------|
----------------------|-------------0-2-4---7-9-|--11--------------------------|
--3----------1--------|--0--2h0h2h4-------------|------------------------------|


                                                            
--12h10-9-------------------------|------------------------|
----------12-10-9-----------------|------------------------|
------------------11-9------------|------------------------|
-----------------------12-11-9----|------------------------|
-------------------------------12-|--11----11h12-9----9h11-|
--0-------------------------------|------------------------|


                                                                 
---------------------|-----------0--0--0--|---------------4-2-0-|
-----------------0-2-|--3--3--3-----------|--2h--0--------------|
-------------1-2-----|--------------------|--------2------------|
---------2-4---------|--------------------|---------------------|
--7------------------|--2-----------------|--0------------------|
--0------------------|-----------4--------|---------------------|


                                                               
--2h4h2-0--2--4h-2--4--|--5-------4t------|--5t------10t------|
--------------3--------|--2-------5t------|--5t------9t-------|
--------------4--------|--2-------4t------|--6t------10t------|
--0--------------------|----------6t------|--7t------9t-------|
--------------2--------|--0------------0--|----------------0--|
-----------------------|-------0----------|-------0-----------|


                  
--12t-----------||
--10t-----------||
--9t------------||
--11t-----------||
----------------||
----------------||
Добавлено: 08.03.2016
Другие материалы по этой песне:
  • Аккорды и текст

Страница создана 08.03.2016
http://primanota.ru/paco-de-luca/guajiras-de-la-lucia-chords.htm
Привет, Гость.
Предлагаем пройти революционный курс по гитаре.
Подарок от PrimaNota.Ru, забирай!