PrimaNota.ru - самый крупный в мире бесплатный архив песенных текстов, аккордов, табулатур и нот


Paco De Luca - Guadalajara - таба, видео

Регистрация Запомнить меня
Войти через:  Facebook Google Twitter Vk Yandex Mail.ru

Paco De Luca - Guadalajara - таба, видео

Печатать
Просмотров: 49
Que onda locos !!see soy el MEXICANO wuu !!
Esta rola la conocen como "mariachi" pero es la que
nosotros conocemos en Mexico como Guadalajara
y pues alguna ves la interpreto paco para los mexicanos y que
es buena para practicar el TREMOLO aqui se las dejo

                 Facil
=O Dificultad :  Intermedio
               ->Avanzado<-
                 Dificil
                                       F
e-0-0-0----5-5---5-5-5--9-9---9P0-0-0-1-1--111--5-5---
B-------------------------------------1-1--111--2-2---
G-------------------------------------2-2--222--2-2---
D-------------------------------------3-3--333--2-2---
A--------0------------0---------------3-3--333--------
E-------------------------------------1-1--111--------

Ahora empiesa la parte del Tremolo con 3dedos que toca
el mariachi tambien pueden usar 4 dedos

e----0h2-3-444-444-444-222-000-000-000-000--000-000-000-----
B-2h3-------------------------------------------------------
G-----------------------------------------------------------
D-----------------------------------------------------------
A----------2-------2-------0-------0--------2-------2-------
E-0------------0-------0-------0-------0--------0-----------

                               LA
e------------------------------0---0-0-0--5-5--5-5-5s9------
B-333-222-000-222-000-222-000--2----------------------------
G------------------------------2----------------------------
D------------------------------2----------------------------
A-----0-------0-------0--------0---------0------------------
E-0-------0-------0-------0----0----------------------------


e-999--999--999--999--999--999-999--999--999--9------------
B----------------------------------------------------------
G----------------------------------------------------------
D----------------------------------------------------------
A-0---------7----0---------7---0----------7---0------------
E------9--------------9--------------9---------------------

              F
e-9P0-0-0-1-1--111--5-5---
B---------1-1--111--2-2---
G---------2-2--222--2-2--- (ESTA PARTE)
D---------3-3--333--2-2---
A---------3-3--333--------
E---------1-1--111--------
se repite todo excepto (esta parte) y se sigue abajo

                            Start   RE  FA#
e-----5----5----5----5------|-5-|--|-2-|-2---------------
B-7-----7----7----7------7--|-7-|--|-3-|-2---------------
G-----7----7----7----7------|-7-|--|-2-|-3---------------
D---------------------------|---|--|---|-4---------------
A---------------------------|---|--|---|-4---------------
E---------------------------|---|--|---|-2---------------
                              |      |   |
 _____________________________|______|___|_________________________
|ESTOS rasgueos se dan con el DEdo MEDIO hacia abajo y hacia arriba|
|el rasgueo es rapido muy rapido asi que seran como 24 rasgueos en |
|Start y en Re,,en Fa seran como 10,solita la velocidad los lleva  |
 ------------------------------------------------------------------

e-0-0-0--4--4-4-2-0--2-0-            -0-0-0-2-0------
B--------3-----------2---            -------2--------
G--------4-----------2---            -------2--------
D--------0-----------2---            -------2--------
A--------------------0---            -------0--------
E------------------------ x3 despues ---------------- x2

-0-0-0-2222--5-5-
-------2222--2-2-
-------2222--2-2-
-------2222--2-2-
-------0000------
-------0000------

empiesan otra ves desde el tremolo otra ves omiten la PARTE
y terminan con este

-----------------------------------------0--55
-------------------0---------------------0--22
-----------------------2-2-2--4-2h4p2-0--1--22
-------1-1-4-4--------------5------------2--22
----2-2----------------------------------2--00
-0-0-------------------------------------0--00

Dudas, quejas, sugerencias, consejos
regaños, mentadas XD esas aka --> kraken_x1@
Saludos desde Morelia Michoacan Mexico
Danielaa niniaa T.Q.M !!!
Добавлено: 08.03.2016
Другие материалы по этой песне:
  • Аккорды и текст

Страница создана 08.03.2016
http://primanota.ru/paco-de-luca/guadalajara-chords.htm
Привет, Гость.
Предлагаем пройти революционный курс по гитаре.
Подарок от PrimaNota.Ru, забирай!