PrimaNota.ru - самый крупный в мире бесплатный архив песенных текстов, аккордов, табулатур и нот


Paco De Luca - Fina Estampa - таба, видео

Регистрация Запомнить меня
Войти через:  Facebook Google Twitter Vk Yandex Mail.ru

Paco De Luca - Fina Estampa - таба, видео

Печатать
Просмотров: 54
hola publico conocedor de la buena musica!!!!pues este es mi
primer trabajo espero
que les guste....SALUDOS A MI PRIMASO DE LAZARO CARDENAS. MICH
chicho haber que te parece esto!!!!!!!! A mis carnales tito y toño un
saludaso y hay que seguir rockeando


el acompañamiento va en E, B y A, porsupuesto comienza en segunda de tono
y su ubicacion es facil
(PARTE A)
E|--16--12--16--12--16--14--11--14--12--9--12--11--7--11--9--5--9--7-|
B|------------------------------------------------------------------9|
G|-------------------------------------------------------------------|
D|-------------------------------------------------------------------|


E|-----7---7--12--7--9--7---7---7-11--7--9--7|
B|----9---9----------------7---7-------------|
G|---9---9----------------8---8--------------|
D|-------------------------------------------|


*SE REPITE LA PARTE A X 1 Y AL FINAL SE TOCA:

E|---5--6--7--9--7--8--9--11--9--10--11--12----|
B|--9----------10-----------12-----------------| (PARTE C)
G|---------------------------------------------|
D|---------------------------------------------|

    (PARTE D)
E|---------------------------------------------|      (X 2)
B|---9---9--10--12--10------10--10--9---12----9--9------------------------|
G|--9--11-------------11--11---------11---9--9-11-11--6--9--8--9--8--9-6--|
D|----------------------------------------------------------------------9-|


E|----------------------5--7--9--9--12--11--12--11-9-11-9--9------------|
B|---------------5--7--9---------------------------------12--12-10-9----|
G|-6-6-6-6-6-6-6----------------------------------------------------11-9|
D|--------------6-------------------------------------------------------|

      (PARTE F)
E|-9-9-9-9-9-9-9------------------9-9-12-11-12-11-9-11-9--9------------|
B|--------------7--9-10-10-9-10-12----------------------12--12-10-9----|
G|-----------------------------------------------------------------11-9|
D|---------------------------------------------------------------------|

         (PARTE G)
E|-9--9--9-9---------------------9---9-9--9-9-12-11-12-11-9-11-9--9----|
B|--12------12--9-9-10-10-9-10-12-------12----------------------12--12109
G|-----11--------------------------11------------------------------------

11-9|

D|---------------------------------------------------------------------|

*SE REPITE LA PARTE A,C,D,F y G.....

  Y asi ternima esta excelente cancion que por cierto si tiene letra
, es de Chabuca Granda por si quieren oir la original..

 dudas, reclamaciones, lo que sea a mi correo va?
          saludos Sain Alto!!!!!!!!!!coman frutas y verduras
Добавлено: 08.03.2016
Другие материалы по этой песне:
  • Аккорды и текст

Страница создана 08.03.2016
http://primanota.ru/paco-de-luca/fina-estampa-chords.htm
Привет, Гость.
Предлагаем пройти революционный курс по гитаре.
Подарок от PrimaNota.Ru, забирай!