PrimaNota.ru - самый крупный в мире бесплатный архив песенных текстов, аккордов, табулатур и нот


Paco De Luca - Entre Arrayanes - таба, видео

Регистрация Запомнить меня
Войти через:  Facebook Google Twitter Vk Yandex Mail.ru

Paco De Luca - Entre Arrayanes - таба, видео

Печатать
Просмотров: 56
Capo en 2


E||----0-------0-------0-----|----0-------0-------0-----|
B||------0-------0-------0---|------0-------0-------0---|
G||--------1-------1-------1-|--------1-------1-------1-|
D||----------2-------3-------|--2-------3-------2-------|
A||--------------------------|--------------------------|
E||--0-----------------------|--------------------------|


                                                      
----0-------0-------0-----|----0-------0-------0-----|
------0-------0-------0---|------0-------0-------0---|
--------1-------1-------1-|--------1-------1-------1-|
----------2-------3-------|--2-------3-------2-------|
--------------------------|--------------------------|
--0-----------------------|--------------------------|


                                                      
----1-------1-------1-----|----1-------1-------1-----|
------1-------1-------1---|------1-------1-------1---|
--------2-------2-0-----2-|--------2-0-----2-------2-|
----------3---------------|--3---------------3-------|
--------------------------|--------------------------|
--1-----------------------|--------------------------|


                                                      
----3-------3-------3-----|----3-------3-------3-----|
------3-------3-------3---|------3-------3-------3---|
--------4-------4-------4-|--------4-------4-------4-|
----------5-------7-------|--5-------7-------5-------|
--------------------------|--------------------------|
--3-----------------------|--------------------------|


                                                           
----5-------5-------5-----|----8-10-8-7-------------------|
------7-------7-------7---|-------------10-8---------8-10-|
--------5-------5-5-----5-|------------------10-9-10------|
----------7---------------|--7--------7-------------------|
--5-----------------------|-------------------------------|
--------------------------|-------------------------------|


                                                      
----3-------3-------3-----|----3-------3-------3-----|
------3-------3-------3---|------3-------3-------3---|
--------4-------4-------4-|--------4-------4-------4-|
------------------5-------|----------5---------------|
----------5---------------|--5---------------5-------|
--3-----------------------|--------------------------|


                                                      
----3-------3-------3-----|----6-5---5-------0-----6-|
------5-------5-------5---|--------8---8-6-5---6-8---|
--------3-------3-3-----3-|--0-----------------------|
----------5---------------|--------------------------|
--3-----------------------|--------------------------|
--------------------------|--------------------------|


                                                      
----1-------1-------1-----|----1-------1-------1-----|
------1-------1-------1---|------1-------1-------1---|
--------2-------2-------2-|--------2-------2-------2-|
------------------3-------|----------3---------------|
----------3---------------|--3---------------3-------|
--1-----------------------|--------------------------|


                                                      
----2-------2-------2-----|----5-7-5-----------------|
------4-------4-------4---|----------8-6-5-------5-6-|
--------2-------2-2-----2-|----------------7-6-7-----|
----------4---------------|--3-----------------------|
--2-----------------------|--------------------------|
--------------------------|--------------------------|


                                                      
----0-------0-------0-----|----0-------0-------0-----|
------0-------0-------0---|------0-------0-------0---|
--------1-------1-------1-|--------1-------1-------1-|
----------2-------3-------|----------2-------0-------|
--------------------------|--------------------------|
--0-----------------------|--0-----------------------|


                                                                        
----0-------0-------5-7-8-|--10-8-7-5-4-----0---------|--0--------0----|
------1-------1-----------|---------------3---3-1-0---|--0--------0----|
--------2-------2---------|-------------5-----------2-|--1--------1----|
--------------------------|---------------------------|--2--------2----|
--3-------2-------0-------|---------------------------|--2--------2----|
--------------------------|---------------------------|--0--------0----|


                                                                      
----------------|--0-------------|------------------|-----------0----|
------0---------|--0--------0----|--0-----1---------|-----------0----|
----------------|--2--------2----|------------------|--1--------1----|
-----------2----|--3--------3----|------------------|-----------2----|
-----------2----|--3-------------|-----0------------|-----------2----|
-----------0----|--0--------0----|--------3----1----|--0-------------|


                                                                  
-------0---------|--5-----7--------8----|------7--------5--------|
-------0---------|-----0----------------|------------0-----------|
-------1---------|-----------0----------|---------0--------0-----|
-------2---------|--7-----7-------------|------7--------7--------|
-------2---------|--------------8--6----|---------------------8--|
----0-------0----|----------------------|------------------------|


                                                                     
--4--------0--0--0--|--0--0--0--0--0--0--0--|--0--0--0--0--0--0--0--|
-----------0--0--0--|--0--0--0--0--0--0--0--|--0--0--0--0--0--0--0--|
-----------1--1--1--|--1--1--1--1--1--1--1--|--2--2--2--2--2--4--4--|
--2--------2--2--2--|--2--2--2--2--2--2--2--|--3--3--3--3--3--5--5--|
-----------2--2--2--|--2--2--2--2--2--2--2--|--3--3--3--3--5--5--5--|
-----------0--0--0--|--0--0--0--0--0--0--0--|--0--0--0--0--0--0--0--|


                                                                        
--0--0--0--0--0--0--0--|--0--0--0--0--0--0--0--|--0--0--0--0--0--0--0--|
--0--0--0--0--0--0--0--|--0--0--0--0--0--0--0--|--0--0--0--0--0--0--0--|
--4--4--4--4--4--2--2--|--1--1--1--1--1--1--1--|--1--1--1--1--1--1--1--|
--5--5--5--5--5--3--3--|--2--2--2--2--2--2--2--|--2--2--2--2--2--2--2--|
--5--5--5--5--5--3--3--|--2--2--2--2--2--2--2--|--2--2--2--2--2--2--2--|
--0--0--0--0--0--0--0--|--0--0--0--0--0--0--0--|--0--0--0--0--0--0--0--|


                                                                 
--0----0--0--0--0----|--0--0--0--0----0----|--0--------4--4--4--|
--0----0--0--0--0----|--0--0--0--0----0----|--0--------3--3--3--|
--2----4--4--4--2----|--2--2--2--4----2----|--1--------4--4--4--|
--3----5--5--5--3----|--3--3--3--5----3----|--2--------3--3--3--|
--3----5--5--5--3----|--3--3--3--5----3----|--2--------5--5--5--|
--0----0--0--0--0----|--0--0--0--0----0----|--0--------4--4--4--|


                                                                            
--3--3--3--3--3--3--3--|--0--0--5-4-5-7-8-7-5-4-|--5-3-1-0-----------------|
--3--3--3--3--3--3--3--|--1--1------------------|----------3-1-0---0-------|
--4--4--4--4--4--4--4--|--2--2------------------|----------------2---2-0---|
--3--3--3--3--3--3--3--|--2--2------------------|------------------------3-|
--5--5--5--5--5--5--5--|--0--0------------------|--------------------------|
--3--3--3--3--3--3--3--|------------------------|--------------------------|


                                                                     
--0--------0----|--0----8--7--5--7--5--4--|--5--------------0--5----|
--0--------0----|--0----------------------|-----5--------1-----5----|
--1--------1----|--1----------------------|--------5--2--------5----|
--2--------2----|--2-------------0--------|--------------------7----|
--2--------2----|--2----7-----------------|--------------------7----|
--0--------0----|--0----------------------|--5-----------------5----|


                                                                     
--5----------3--5--7--5--|--3--------3----|--3----------------------|
--5-------3--------------|--3--------3----|--3----------------------|
--5----4--------5--------|--4--------4----|--4----2--------0--------|
--7----0-----------------|--5--------5----|--5-------5--3-----3--2--|
--7----------------------|--5--------5----|--5----------------------|
--5----------------------|--3--------3----|--3----------------------|


                                                                       
--1----1-------------|-----------------------------|--0----0----0-----|
--1----1-------------|--0--------------------------|--0----0----0-----|
--2----2----2--0-----|-----2--0--2--0--------------|--1----1----1-----|
--3----3----------3--|-----------------3--3--2--0--|--2----2----2--2--|
--3----3-------------|-----------------------------|--2----2----2-----|
--1----1-------------|-----------------------------|--0----0----0-----|


                                                            
-----------------------------|-----------------------------|
-----------0-----------------|-----------------0--3--0--3--|
-----1--2-----2--1-----------|-----0--------1--------------|
--2-----------------0-----0--|--------2--2-----------------|
-----------------------0-----|--3--------------------------|
-----------------------------|-----------------------------|


                                                                 
-----------------------------|-------0----0----|-----------0----|
--1-----1--0-----0-----0-----|-------0----0----|-----------0----|
-----2--------1-----2-----2--|--1----1----2----|-----------1----|
-----------------------------|-------2----3----|-----------2----|
-----------------------------|-------2----2----|----------------|
-----------------------------|-------0----0----|------0---------|


                                                                       
--0-------------|----------------|--0--------0----|--0----1--4--5--7--|
--0--------3----|------0---------|--0--------0----|--0----------------|
--2--------2----|------2------2--|--1--------1----|--1----------------|
--3--------3----|------3---------|--2--------2----|--2----------------|
--3-------------|----------------|--2--------2----|--2----------------|
--0-------------|----------------|--0--------0----|--0----------------|


                                                              
--8------5-7-5-3----|--3----1--3--5--7--|--8------5-7-5-3----|
-------8-------3----|--3----------------|-------8-------3----|
---------------4----|--4----------------|---------------4----|
---------------5----|--5----------------|---------------5----|
---------------5----|--5----------------|---------------5----|
---------------3----|--3----------------|---------------3----|


                                                                          
--3----------------------|--------------------------|-----0--5--3--1--0--|
--3-------------------0--|--1--0-----------------0--|--1-----------------|
--4-------------0--2-----|--------2--0--------------|--------------------|
--5----0--2--3-----------|--------------3--2--2-----|--------------------|
--5----------------------|--------------------------|--------------------|
--3----------------------|--------------------------|--------------------|


                                                                     
--1--------------------------|--0-------------0----|--0-------------|
-----3-----------------------|--0-------------0----|--0--------3----|
--------2--4--2--1--------2--|--1-------------1----|--2--------2----|
-----------------------3-----|--2-------------2----|--3--------3----|
-----------------------------|---------------------|--3-------------|
--------------------0--------|-----------0---------|--0-------------|


                                                                            
----------------|--0--------0----|--------------|--------------------------|
------0---------|--0--------0----|--------------|--------------------------|
------2----2----|--1--------1----|--------------|----1-1-1---1-1-1---1-1-1-|
------3---------|--2--------2----|--------------|------------------2-------|
----------------|--2--------2----|--------------|----------2---------------|
----------------|--0--------0----|--------------|--0-----------------------|


                                                      
--------------------------|--------------------------|
--------------------0-0-0-|----3-3-3---3-3-3---3-3-3-|
----1-1-1---2-2-2---------|------------------2-------|
----------2---------------|----------3---------------|
--2---------------2-------|--2-----------------------|
--------------------------|--------------------------|


                                                        
----------------------------|--------------------------|
----3-3-3---1-1-1---1-1-3-1-|----0-0-0---0-0-0---0-0-0-|
----------2-----------------|------------------1-------|
--3---------------3---------|----------2---------------|
----------------------------|--------------------------|
----------------------------|--0-----------------------|


                                                      
--------------------------|--------------------------|
----0-0-0-----------0-0-0-|----3-3-3---3-3-3---3-3-3-|
------------2-2-2---------|------------------2-------|
--2---------------2-------|----------3---------------|
----------2---------------|--0-----------------------|
--------------------------|--------------------------|


                                                                                
----------------------------|--------------------------|------------------0----|
----3-3-3---1-1-1---1-1-3-1-|----0-0-0---0-0-0---0-0-0-|----0-0-0---0-0-0-0----|
----------2-----------------|------------------1-------|----------1-------1----|
--3---------------3---------|----------2---------------|--2---------------2----|
----------------------------|--------------------------|-----------------------|
----------------------------|--0-----------------------|-----------------------|


                                                      
----5-5-5---5-5-5---5-5-5-|----5-5-5---5-5-5---5-5-5-|
------------------6-------|------------------6-------|
----------5---------------|----------5---------------|
--7-----------------------|--7-----------------------|
--------------------------|--------------------------|
--------------------------|--------------------------|


                                                                              
----4-4-4---4-4-4---4-4-4-|----4-4-4---4-4-4------|----5-5-5---5-5-5---5-5-5-|
------------------5-------|------------------5----|------------------6-------|
----------4---------------|----------4------------|----------5---------------|
--6-----------------------|--6--------------------|--7-----------------------|
--------------------------|-----------------------|--------------------------|
--------------------------|-----------------------|--------------------------|


                                                                            
-----10-10-10----12-12-12----13-13-13-|-----12-12-12---12-12-12---12-12-12-|
--------------------------------------|------------------------------------|
--------------10----------10----------|-------------------------9----------|
--------------------------------------|--------------9---------------------|
--12----------------------------------|--11--------------------------------|
--------------------------------------|------------------------------------|


                                                             
-----12-12-12---12-12-12------|----8-8-8---8-8-8---10-10-10-|
------------------------------|-----------------------------|
-------------------------9----|------------------5----------|
--------------9---------------|----------5------------------|
--11--------------------------|-----------------------------|
------------------------------|--8--------------------------|


                                                              
----12-12-12----10-10-10----8-8-8-|----7-7-7---7-7-7---8-8-8-|
----------------------------------|--------------------------|
----------------------------------|------------------7-------|
-------------------------10-------|--5-------9---------------|
-------------10-------------------|--------------------------|
--8-------------------------------|--------------------------|


                                                         
----10-10-10---8-8-8---7-7-7-|----5-5-5---5-5-5---7-7-7-|
-----------------------------|--------------------------|
-------------7---------------|------------------5-------|
--9------------------9-------|----------7---------------|
-----------------------------|--8-----------------------|
-----------------------------|--------------------------|


                                                      
----8-8-8---7-7-7---5-5-5-|----3-3-3---3-3-3---5-5-5-|
--------------------------|--------------------------|
----------5---------------|--------------------------|
--7---------------7-------|------------------5-------|
--------------------------|----------5---------------|
--------------------------|--3-----------------------|


                                                      
----7-7-7---5-5-5---3-3-3-|----1-1-1---1-1-1---3-3-3-|
--------------------------|--------------------------|
--------------------------|--------------------------|
----------5---------------|------------------3-------|
--5---------------5-------|----------3---------------|
--------------------------|--1-----------------------|


                                                              
----5-5-5---3-3-3---1-1-1-|----0-------0-------0-------0-----|
--------------------------|------0-------0-------0-------0---|
--2---------------2-------|--------1-------1-------2-------0-|
----------3---------------|----------2-------3---------------|
--------------------------|--------------------------2-------|
--------------------------|--0-------------------------------|


                                                               
----0-------0-------0-------0-----|----0-----5-4-5-7-8-10-8-7-|
------0-------0-------1-------1---|------1--------------------|
--------0-------0-------2-------2-|--------2------------------|
--2-------0-----------------------|---------------------------|
------------------3-------2-------|--0------------------------|
----------------------------------|---------------------------|


                                                                              
--5-3-1-0-----------------|-----------0----|-----------0----|--0-------------|
----------3-1-0---0-1-0---|-----------0----|-----------0----|--0--------3----|
----------------2-------2-|--1--------2----|-----------1----|--2--------2----|
--------------------------|-----------3----|-----------2----|--3--------3----|
--------------------------|-----------3----|----------------|--3-------------|
--------------------------|-----------0----|------0---------|--0-------------|


                                                                               
----------------|--0--------0----|--------------|--------0-----------1--0-----|
------0---------|--0--------0----|--------------|--0--1-----0--1--3--------3--|
------2----2----|--1--------1----|--------------|-----------------------------|
------3---------|--2--------2----|--------------|-----------------------------|
----------------|--2--------2----|--------------|-----------------------------|
----------------|----------------|--------------|-----------------------------|


                                                                      
--0-----------------|---------------0------------|-------------------|
-----3--1--0--------|-----0-----3-1---3-3--1--0--|--------0----------|
-----------0--------|--2-----2-------------------|--2--2-----2--1----|
-----------0--------|----------------------------|--------------2----|
-----------2--------|----------------------------|--------------2----|
-----------3--------|----------------------------|--------------0----|


                                                            
--------------------1--0-----|--0--------------------------|
--0--1--3--0--1--3--------3--|-----3--1--0--------3--1--0--|
-----------------------------|-----------0--2--0-----------|
-----------------------------|-----------0-----------------|
-----------------------------|-----------2-----------------|
-----------------------------|-----------3-----------------|


                                                            
--0--------------------1--3--|--3--1--3--5--3--1--1-----0--|
-----3--1--3--1--0-----------|-----------------------3-----|
--------------------2--------|-----------------------------|
-----------------------------|-----------------------------|
-----------------------------|-----------------------------|
-----------------------------|-----------------------------|


                                                                
--1--5--3--1--3--1--0--1--3--|--5--7--8--12--------------------|
-----------------------------|---------------13--12--10--8--6--|
-----------------------------|---------------------------------|
-----------------------------|---------------------------------|
-----------------------------|---------------------------------|
-----------------------------|---------------------------------|


                                                               
--------------------------------------|-----------------------|
--5-----------------------------------|-----------------------|
--------------2-0---------0-----------|-----------------------|
------------------3-2-0-----3-2-0-----|--3-2-0----------------|
--5-3-2-0---------------3---------3-2-|--------3-2-0----------|
----------3-0-------------------------|--------------4--------|


                                                                              
--0--0--0--0--0--0--|--0--0--0--0--0--0--|--0----0----0----|-----------------|
--0--0--0--0--0--0--|--0--0--0--0--0--0--|--0----0----0----|-----------------|
--1--1--1--1--1--1--|--1--2--2--2--2--2--|--4----4----4----|-----------------|
--2--2--2--2--2--2--|--2--3--3--3--3--3--|--5----5----5----|-----------------|
--2--2--2--2--2--2--|--2--3--3--3--3--3--|--5----5----5----|--0--------------|
--0--0--0--0--0--0--|--0--0--0--0--0--0--|--0----0----0----|-------3----1----|


                                                                 
--0--0--0--0--|--0--------|------------------|------------------|
--0--0--0--0--|--0--------|--0----0--1--0----|--0----------0----|
--1--1--1--1--|--1--------|------------------|-----2--0----0----|
--2--2--2--2--|--2--------|------------------|-------------0----|
--2--2--2--2--|--2--------|------------------|-------------2----|
--0--0--0--0--|--0--------|------------------|-------------3----|


                                                               
-----------------------|--0--0--0----0--0--|------------------|
-----------------------|--1--1--1----1--1--|------------------|
------0----------------|--3--3--3----3--3--|-------------0----|
--2-3---3-2-0-2-3-2----|--2--2--2----2--2--|--2----2--3-------|
-----------------------|--3--3--3----3--3--|------------------|
-----------------------|-------------------|------------------|


                                                                 
--------------------|--------------------1----|--1--1------1----|
--------------------|--0-----1--0--------1----|--1--1------0----|
--0-----------0--2--|-----2--------2--0--2----|--2--2------0----|
-----3--2--3--------|--------------------3----|--3--3------0----|
--------------------|--------------------3----|--3--3------2----|
--------------------|--------------------1----|--1--1------3----|


                                                              
------------------|-------------1----|-----------------------|
--0----0--1--0----|--0----------3----|-----------------------|
------------------|-----2--0----3----|------0----------------|
------------------|-------------0----|--2-3---3-2-0-2-3-2----|
------------------|-------------1----|-----------------------|
------------------|-------------3----|-----------------------|


                                                            
--0--0--0----0--0--|------------------|--------------------|
--1--1--1----1--1--|------------------|--------------------|
--3--3--3----3--3--|-------------0----|--0-----------0--2--|
--2--2--2----2--2--|--2----2--3-------|-----3--2--3--------|
--3--3--3----3--3--|------------------|--------------------|
-------------------|------------------|--------------------|


                                                               
--------------------1----|--1--1------1----|------------------|
--0--1--0-----------0----|--0--0------0----|--0----0--1--0----|
-----------2--0--2--0----|--0--0------0----|------------------|
--------------------0----|--0--0------0----|------------------|
--------------------2----|--2--2------2----|------------------|
--------------------3----|--3--3------3----|------------------|


                                                                                
-------------1----|-----------------------|--0--0------0----|------------------|
--0----------0----|--0--------------------|--1--1------1----|------------------|
-----2--0----0----|----2-0----------------|--0--0------0----|-------------0----|
-------------0----|--------3-2-0-2-3-2----|--2--2------2----|--2----2--3-------|
-------------2----|-----------------------|--3--3------3----|------------------|
-------------3----|-----------------------|-----------------|------------------|
Добавлено: 08.03.2016
Другие материалы по этой песне:
  • Аккорды и текст

Страница создана 08.03.2016
http://primanota.ru/paco-de-luca/entre-arrayanes-chords.htm
Привет, Гость.
Предлагаем пройти революционный курс по гитаре.
Подарок от PrimaNota.Ru, забирай!