PrimaNota.ru - самый крупный в мире бесплатный архив песенных текстов, аккордов, табулатур и нот


Paco De Luca - Celosa - таба, видео

Регистрация Запомнить меня
Войти через:  Facebook Google Twitter Vk Yandex Mail.ru

Paco De Luca - Celosa - таба, видео

Печатать
Просмотров: 72
E||-----------------|---------------6----|-----------------|
B||--5----5----5----|--------------------|-----------------|
G||--2----2----2----|--7------9-7-6-7----|--5----4----3----|
D||--3----3----3----|--8-----------------|-----------------|
A||--3----3----3----|--8-----------------|-----------------|
E||-----------------|--6-----------------|--4----3----2----|


                                                                  
------------------0--|------------------0--|------------------0--|
---------------------|---------------------|---------------------|
--2------3-2-0-2-----|--2------3-2-0-2-----|--2------3-2-0-2-----|
---------------------|--0------------------|--2------------------|
---------------------|--1------------------|--0------------------|
--1------------------|---------------------|---------------------|


                                                                      
-------------------------|---------------|-----------------0--1------|
-------------------------|---------------|--------------3------------|
-------------------------|---------------|-----------2---------------|
------------------0------|---------------|--3--0--3-----------3--2-0-|
-----1-3----1--3-----4-1-|--0------------|---------------------------|
--4------4---------------|--5------------|---------------------------|


                                                        
---------------------------|---------------------------|
-----1--------1--3--4--3---|-----------------1--3--2---|
-----------0-------------5-|-----3--------3----------3-|
--------2------------------|--------0--3---------------|
--3------------------------|---------------------------|
---------------------------|--6------------------------|


                                                       
-----------------------0--|-----------------0--1--0---|
--------------------------|--------------3----------3-|
-----2---2----------2-----|-----------3---------------|
-------2---------2--------|-----0--3------------------|
--0--------0--4-----------|---------------------------|
--------------------------|--3------------------------|


                                                        
---------------------------|---------------------------|
--------------1--3--4--3---|-----------------1--3--2---|
-----------2-------------5-|-----3--------3----------3-|
--------1------------------|--------0--3---------------|
-----3---------------------|---------------------------|
--1------------------------|--6------------------------|


                                                                            
--------------------0--0---|-----------------------|-----------------------|
--------------------2--2---|--2--2---2--2---2--2---|--2--2---2--2---2--2---|
-----2---2----------2--3-2-|--2--3-2-2--3-2-2--3-2-|--2--3-2-2--3-2-2--3-2-|
-------2---------2---------|--2--2---2--2---2--2---|--2--2---2--2---2--2---|
--0--------0--4------------|--0------0------0------|--0------0------0------|
---------------------------|-----------------------|-----------------------|


                                                                          
-------------------------|----------------------|------------------------|
--2-2-2-2-2--2---2-2-2-2-|--2--2---2--2---2--2--|--3-3-3-3-3-3-3-3-3--3--|
--3-3-3-3-3--3-2-2-2-2-2-|--2--3-2-2--3-2-2--2--|--0-0-0-0-0-0-0-0-0--0--|
--2-2-2-2-2--2---2-2-2-2-|--2--2---2--2---2--2--|--3-3-3-3-3-3-3-3-3--3--|
--0-0-0-0-0--0---0-0-0-0-|--0------0------0-----|--1-1-1-1-1-1-1-1-1--1--|
-------------------------|----------------------|------------------------|


                                                                
--------------------|--------------------|--0--0--0--3-0-0--0--|
--3--3--3--3--3--3--|--3--3--3--3--3--3--|--2--2--2--2---2--2--|
--0--0--0--0--0--0--|--0--0--0--0--0--0--|--3--3--3--3---3--3--|
--3--3--3--3--3--3--|--3--3--3--3--3--3--|--2--2--2------2--2--|
--0--0--1--1--0--0--|--1--1--0--0--1--1--|--0--0---------------|
--------------------|--------------------|---------------------|


                                                                                
--1-1-1-1-1-1-1-1-1-1-1----|--0-0-0-0-0-0-0-0-0-0-0--0--|-----0------0-----0---|
--1-1-1-1-1-1-1-1-1-1-1----|--1-1-1-1-1-1-1-1-1-1-1--1--|--3--3---3--3--3--3---|
--2-2-2-2-2-2-2-2-2-2-2----|--3-3-3-3-3-3-3-3-3-3-3--3--|--3--3---3--3--3--3---|
--3-3-3-3-3-3-3-3-3-3-3----|--2-2-2-2-2-2-2-2-2-2-2--2--|--0--2-0-2-----0------|
--3-3-3-3-3-3-3-3-3-3-3----|--3-3-3-3-3-3-3-3-3-3-3--3--|---------3-----1--3-1-|
---------------------------|----------------------------|----------------------|


                                                                         
-----0-0-------------0---|-------------------------|--------------------|
-----2-2-------2--2--2---|--2--2---2--3-3-3-3-3----|--------2--2--2--2--|
-----2-2----2-----3--3-2-|--2--3-2-2--0-0-0-0-0----|----0---0--0--0--0--|
---------2--------2------|--2--2---2--3-3-3-3-3----|----3---2--2--2--2--|
--0----------------------|--0------0--1-1-1-1-1----|----1-0-0--0--0--0--|
-------------------------|-------------------------|--------------------|


                                                      
--------0-------------------|---------0-----------0--|
------3---3-----------------|-------2----------------|
----3-------3---------------|-----2------------2-----|
--0-------------------------|---------------2--------|
--------------3---1-0-1-3-1-|--0--------0-4----------|
----------------------------|------------------------|


                                                                              
--------0-----------0-----|-----------------------|--------------------------|
------3---3---------3-----|-----3-----------3-----|--------3-----------3-----|
----3-------3-------3-----|-----3-----------4-----|--------3-----------3-----|
--0--------------0--2--0--|-------0---------0-----|----------0---------0-----|
--------------4-----------|--3------3-2--3-----3--|--1-3-1-----1-0--1--3---1-|
--------------------------|-----------------------|--------------------------|


                                                      
----0----------------0--|--------0-----------0-------|
------2-----------------|------3---3---------3-------|
--------2---2-----2-----|----3-------3-------3-------|
----------------2-------|--0--------------0--2-0-----|
--0-------0---4---------|--------------4---------3-2-|
--------------8---------|----------------------------|


                                                                                
--------------------------|----------------1-0-------|----0----------------0---|
----3---------------------|--------3-----3-----3-2---|------2------------------|
----3-------------------2-|------3-----3-----------3-|--------2---2-----3----2-|
----------------------3---|----0---------------------|----------------2--------|
--3---3-1-0-1-0-----3-----|--1-----------------------|--0-------0---4----------|
----------------3-1-------|----------3---------------|-------------------------|


                                                                    
-----------------------|--------------------|----------------------|
--2-2-2-2-3-3-3-3-3----|--------2--2--2--2--|----------------------|
--2-2-2-2-0-0-0-0-0----|----0---0--0--0--0--|----------------------|
--2-2-2-2-3-3-3-3-3----|----3---2--2--2--2--|-----0----------------|
--0-0-0-0-1-1-1-1-1----|----1-0-0--0--0-----|--1-----3---1-0-1-3-1-|
-----------------------|-----------------4--|----------------------|


                                                       
---------0----------0--|--------0------------0--------|
-------2---------2-----|------3---3--------3----------|
-----2--------2--------|----3-------3-0--3-----2--0---|
-----------2-----------|--3-------------------------3-|
--0--------------------|------------------------------|
-----------------------|------------------------------|


                                                                            
----0-------0--------0---|----0-------0--------0---|--0------0----------0--|
------3-------3----------|------3-------3----------|-------2---------2-----|
--------3-------3-0------|--------3-------3-0------|-----2--------2--------|
--2-------4------------3-|--2-------4------------3-|-----------2-----------|
-------------------------|-------------------------|--0--------------------|
-------------------------|-------------------------|-----------------------|


                                                                              
----0-------0------------|----0-------0--------0---|----0-------0--------0---|
------3-------3----------|------3-------3----------|------3-------3----------|
--------3-0-----3-2--0---|--------3-------3-0------|--------3-------3-0------|
--3--------------------3-|--2-------4------------4-|--2-------4------------4-|
-------------------------|-------------------------|-------------------------|
-------------------------|-------------------------|-------------------------|


                                                                           
--0------0----------0--|----0-------0------------|----0-------0-----------|
-------2---------2-----|------3---1---3----------|------3-------3---------|
-----2--------2--------|--3-----3-------3-7--5-3-|--2-----3-0-----3-------|
-----------2-----------|-------------------------|------------------3---2-|
--0--------------------|-------------------------|------------------------|
-----------------------|-------------------------|------------------------|


                                                                                
----0-------0-----------|----0----------------0--||---5--0---------0--5--3--5--|
------3-------3---------|------2-----------------||----------------------------|
--------3-------3-------|--------2---2-----2-----||*-------3----3--------------|
--0-------0-------------|----------------2-------||*---------3-----------------|
------------------3---1-|--0-------0---4---------||---0------------------------|
------------------------|------------------------||----------------------------|


                                                          
--3--0------------0--1--3--|--5--0-----6--------5--------|
---------------------------|--------------5--------6--5--|
-------3-------3-----------|--------3--------3-----------|
------------3--------------|-----------------------------|
--0------0-----------------|--0--------------------------|
---------------------------|-----------------------------|


                                                         
--------------0-----0--0---||---------------------------|
--5--5-5-------------------||--3---------------3--2--3--|
---------3-2-----3--------*||-----3---------3-----------|
--------------------------*||-------2----2--------------|
---------------------------||--3------------------------|
--5------------------------||---------3-----------------|


                                                          
-----------------1-----------|--------------1--0---------|
--------------1-----4--3-----|-----------3--------3--2---|
-----------2--------------5--|--------3----------------3-|
--------1--------------------|-----3---------------------|
-----3-----------------------|--1------------------------|
--1--------------------------|--------------------3------|


                                                     
-----0---------------0--|---------------------------|
-------2----------------|--3---------------3--2--3--|
---------2--------2-----|-----3---------3-----------|
---------------2--------|-------2----2--------------|
--0---------4-----------|--3------------------------|
------------------------|---------3--------2--------|


                                                            
-----------------------1--0--|-----------------------0-----|
--5--3--1-----------1--------|--3-----------------------3--|
-----------------2-----------|--------------------3--------|
--------------1--------------|--0-----------0--3-----------|
-----------3-----------------|-----3--1--------------------|
--1--------------------------|-----------4-----------------|


                                                                           
-------------------0--|------------0-----0-----0-|-------0------0-----0---|
----------------------|--3-------3-3---3-3---3-3-|-----3-3----3-3---3-3---|
----------2-----2-----|--3-------3-3---3-3---3-3-|-----3-3----3-3---3-3---|
--------------2-------|--2-2-0---0-----0-----0---|-----0------0-----0-----|
--3---1-0---4---------|--5-----4-----4-----4-----|--3------2------3-----3-|
----------------------|--------------------------|------------------------|


                                                                       
-------0------0-----0---|--------0--3-3-3-3--3--|------------0-----0--|
-------3----3-3---3-3---|--------2--2-2-2-2--2--|--3------3-----3-----|
-------3----3-3---3-3---|--------3--3-3-3-3--3--|--3------3-----3-----|
-----0------0-----0-----|-----2-----2-2-2-2--2--|--0--2-0-2-----0-----|
--1------0------1-----1-|--0--------------------|---------3-----1-----|
------------------------|-----------------------|---------------------|


                                                                              
-----0-----0-----0--|--------0-----------------------|---------0----------0--|
--3-----3-----3-----|------3---3----------3--------3-|-------2---------2-----|
--3-----3-----3-----|----3-------3------3--------3---|-----2--------2--------|
--0-----0-----2-----|--0--------------0--------0-----|-----------2-----------|
--0-----1-----3-----|--------------3-----------------|--0--------------------|
--------------------|-----------------------4--------|-----------------------|


                                                                                
--------0-----------0-----|-----------------------|----------------------------|
------3---3---------3-----|-----3-----------3-----|--------3-------3-----------|
----3-------3-------3-----|-----3-----------3-----|--------3-------3-----------|
--0--------------0--2--0--|-------0---------0-----|----------0-------0---------|
--------------4-----------|--3------3-2--3-----3--|--1-3-1-----1-0-----1-3---1-|
--------------------------|-----------------------|----------------------------|


                                                                       
----0--------------------|-----------------------|--------------------|
------2--------------2---|--2-2-2-2-3-3-3-3-3----|--------2--2--2--2--|
--------2---2-----2--3-2-|--2-2-2-2-0-0-0-0-0----|----0---0--0--0--0--|
----------------2----2---|--2-2-2-2-3-3-3-3-3----|----3---2--2--2--2--|
--0-------0---4----------|--0-0-0-0-1-1-1-1-1----|----1-0-0--0--0--0--|
-------------------------|-----------------------|--------------------|


                                                      
--------0------------0-------|---------0----------0--|
------3---3--------3---------|-------2---------2-----|
----3-------3----3-----------|-----2--------2--------|
--0--------------------------|-----------2-----------|
--------------4--------3---1-|--0--------------------|
-----------------------------|-----------------------|


                                                      
|------0------0-----------|-----0---------------0---||
|--------3-1-----3--1-----|-------2-----------------||
|*----------------------3-|---------2--------2-----*||
|*------------------------|---------------2--------*||
|---3---------------1-----|--0---------4------------||
|-------------------------|-------------------------||


                                                       
-----0--------0------------|-----------------------0--|
--3-----3--3-----3--3--1---|--------1-----------------|
--3----------------------3-|--2--3-----3--2--0--2-----|
--2------------------------|--------------------------|
--3------------------------|--------------------------|
---------------------------|--------------------------|


                                                       
-----3-----------------------|---------------------0--|
-----------1-----------3--1--|------------3--1--------|
--3-----3-----3--2--3--------|--3------3--------3-----|
-----------------------------|-----0-3----------------|
-----------------------------|------------------------|
-----------------------------|------------------------|


                                                      
--------------------------|--------------------------|
--------------------------|--------------------3-----|
--------------------------|--------------------3-----|
--------0--------3--2---0-|-----------------2--3-----|
-----1--------1-----------|--3--------0--1-----5---3-|
--3--------3--------------|-----1--3-----------------|


                                                      
--------------------------|-----0--0--------------0--|
--------------------3-----|-----2--2--------2--2-----|
--------------------3-----|-----2--2-----2-----2-----|
-----------------0--0-----|-----------2--------2-----|
--1-----------1-----3---1-|--0-----------------------|
-----0--1--3--------------|--------------------------|


                                                       
--------0-------------------|-----0-------------------|
--3-----3------------3------|--3--3------------3--3---|
--3-----3---------------2-3-|--3--3------------3------|
--0-2-0-----------0---------|------------------0------|
----------3-1--3------------|--3----1-0--1--3-------3-|
----------------------------|-------------------------|


                                                                                
-------------------------|-----0--0--------------0---|-------------------------|
---------------------3---|-----2--2--------2--2--2---|--2--2---2--3-3-3-3-3----|
-----3-------------------|-----2--2-----2-----3--3-2-|--2--3-2-2--0-0-0-0-0----|
-------------------------|-----------2--------2------|--2--2---2--3-3-3-3-3----|
--1----0----0--1--3----1-|--0------------------------|--0------0--1-1-1-1-1----|
---------3---------------|---------------------------|-------------------------|


                                                                               
---------------------|--------0------------0--------0-|---------0----------0--|
--3------2--2--2--2--|------3---3--------3--------3---|-------2---------2-----|
--0--0---2--2--2--2--|----3-------3----3--------3-----|-----2--------2--------|
--3--3---2--2--2--2--|--0-----------------------------|-----------2-----------|
--1--1-0-0--0--0--0--|--------------3--------1--------|--0--------------------|
---------------------|--------------------------------|-----------------------|


                                                        
-----1------1--------1---|-----------------------1-----|
-------------------------|--------1--------------------|
--2----2-2-----2--2----2-|--1--2-----3--2--1--2-----2--|
--3----------------------|--------------------3--------|
--3----------------------|--------------------3--------|
--1----------------------|--------------------1--------|


                                                      
-----1-----------------------|-----0------------0----|
-----------------------------|---------------1-------|
--2-----2--0--2--3--2--0-----|------------0----------|
--------------------------3--|--2------2-------------|
-----------------------------|-------3---------------|
-----------------------------|-----------------------|


                                                            
-----------0--3--6--5--3--1--|--0-----------------3--------|
-----------------------------|-----3--1-----1--3--3--------|
-----0--3--------------------|-----------3--------5--3--2--|
-----------------------------|-----------------------------|
--3--------------------------|-----------------------------|
-----------------------------|-----------------------------|


                                                         
-----------3-----------------|------------------------0-|
-----------3-----------------|-----------------3--3-----|
--0--2--3--3--0--------------|-----3--------3-----3-----|
-----------7-----3--2--0-----|--------0--3--------3-----|
--------------------------3--|--1-----------------5-----|
-----------------------------|--------------------------|


                                                        
---------------------------|---------------------------|
---------------------------|---------------------------|
---------------------------|---------------------------|
--------1--0--1--0---------|--------2--0--2--0---------|
-----0--------------3--1-0-|-----1--------------3--1-0-|
--2------------------------|--3------------------------|


                                                    
---------------------------|---------0----------0--|
---------------------------|-------2---------2-----|
---------------------------|-----2--------2--------|
--------0------------------|-----------2-----------|
-----1-----4--3--1--0--3-1-|--0--------------------|
--4------------------------|-----------------------|


                                                             
--------0-----0-----0-----0-------|--------------0------0---|
--3-----3---3-3---3-3---3---3-----|----3-3-----3-3---3--3---|
--3-----3---3-3---3-3---3---3-----|----3-------3-3---3--3---|
--0-2-0-----0-----0-----0---2---0-|----0-------0-----0------|
----------4-----4-----4-----------|--3-----3-1-----3------3-|
----------------------------------|-------------------------|


                                                                              
------0-------0------0---|------0-----------0--0--|------------0-----0-----0-|
----3-3-----3-3---3--3---|----2-2-----------2-----|--3-------3-3---3-3---3-3-|
----3-3-----3-3---3--3---|----2-2-----------2-----|--3-------3-3---3-3---3-3-|
----0-------0-----0------|----2-------2---2-------|--0-2-0---0-----0-----0---|
--1-----1-0-----1-3----1-|--0-----0-4---4---------|--------4-----4-----4-----|
-------------------------|------------------------|--------------------------|


                                                                          
-------0------0-----0---|-------0------0-----0---|--------0--3-3-3-3--3--|
-----3-3----3-3---3-3---|-----3-3----3-3---3-3---|--------2--2-2-2-2--2--|
-----3-3----4-4---4-4---|-----3-3----3-3---3-3---|--------2--3-3-3-3--3--|
-----0------0-----0-----|-----0------0-----0-----|-----2-----2-2-2-2--2--|
--3------2------3-----3-|--1------0------1-----1-|--0--------------------|
------------------------|------------------------|-----------------------|


                                                                
------------0-----0--|-----0-----0-------|---------------------|
--3------3-----3-----|--3-----3-----3----|--3-----------3------|
--3------3-----3-----|--3-----3-----3----|--------------3------|
--0--2-0-2-----0-----|--0-----0-----2----|--0--2-0------0------|
---------3-----1-----|--0-----1-----3----|---------3----1--3-1-|
---------------------|-------------------|---------------------|


                 
---------------||
--2------------||
--2------------||
--2------------||
--0------------||
---------------||
Добавлено: 05.03.2016
Другие материалы по этой песне:
  • Аккорды и текст

Страница создана 05.03.2016
http://primanota.ru/paco-de-luca/celosa-chords.htm
Привет, Гость.
Предлагаем пройти революционный курс по гитаре.
Подарок от PrimaNota.Ru, забирай!