PrimaNota.ru - самый крупный в мире бесплатный архив песенных текстов, аккордов, табулатур и нот


Pablo - Porque Homem Não Chora - таба, видео

Регистрация Запомнить меня
Войти через:  Facebook Google Twitter Vk Yandex Mail.ru

Pablo - Porque Homem Não Chora - таба, видео

Печатать
Просмотров: 149
Tom: G


Intro: Em  C  G  D

Solo Intro:

Parte 1


E|----------------------------------------------------|
B|-------7-8-7h8p7------------------------------------|
G|-----9-----------9/12-12~---------------------------|
D|-7/9------------------------------------------------|
A|----------------------------------------------------|
E|----------------------------------------------------|


Parte 2


E|----------------------------------------------------|
B|----------------------------------------------------|
G|---------7-9-7h9p7----------------------------------|
D|------10-----------10---------9h10-9-9-7-7h9--------|
A|-7/10-----------------7/10-12-----------------------|
E|----------------------------------------------------|


Parte 3


E|----------------------------------------------------|
B|----------------------------------------------------|
G|-----7----------------------------------------------|
D|-9-9---9-7------------------------------------------|
A|-----------10-9h10p9--------------------------------|
E|----------------------------------------------------|


Parte 4


Página 1 / 5
E|----------------------------------------------------|
B|-7-8-10-8-7h8p7---7h8p7-----------------------------|
G|----------------9-------9-7-7/9~--------------------|
D|----------------------------------------------------|
A|----------------------------------------------------|
E|----------------------------------------------------|


Primeira Parte:

Em
   Estou indo embora
C
  A mala já está lá fora
     G
Vou te deixar (vou te deixar)
     D
Vou te deixar

Em
   Por favor, não implora
C
  Porque homem não chora
   G
E não pede perdão
   D
E não pede perdão

Pré-refrão:

Am
   Você foi a culpada 
        D
Desse amor se acabar
G                 D/F#          Em
  Você quem destruiu a minha vida
Am                            D
   Você que machucou meu coração

Me fez chorar
G                  D/F#        Em
  E me deixou num beco sem saída

Refrão:

              C
Estou indo embora agora
                   D
Página 2 / 5
Porque homem não chora

              C
Estou indo embora agora
                   D
A mala já está lá fora
                   
Porque homem não chora

Base Solo:

Em  C  G  D

Solo:

Parte 1


E|----------------------------------------------------|
B|-------7-8-7h8p7------------------------------------|
G|-----9-----------9/12-12~---------------------------|
D|-7/9------------------------------------------------|
A|----------------------------------------------------|
E|----------------------------------------------------|


Parte 2


E|----------------------------------------------------|
B|----------------------------------------------------|
G|---------7-9-7h9p7----------------------------------|
D|------10-----------10---------9h10-9-9-7-7h9--------|
A|-7/10-----------------7/10-12-----------------------|
E|----------------------------------------------------|


Parte 3


E|----------------------------------------------------|
B|----------------------------------------------------|
G|-----7----------------------------------------------|
D|-9-9---9-7------------------------------------------|
A|-----------10-9h10p9--------------------------------|
E|----------------------------------------------------|


Parte 4


Página 3 / 5
E|-------------------------7-7h8----------------------|
B|-7-8-10-8-7h8p7---7-8-10----------------------------|
G|----------------9--------------9-9------------------|
D|----------------------------------------------------|
A|----------------------------------------------------|
E|----------------------------------------------------|


Pré-refrão:

Am
   Você foi a culpada 
        D
Desse amor se acabar
G                 D/F#          Em
  Você quem destruiu a minha vida
Am                            D
   Você que machucou meu coração

Me fez chorar
G                  D/F#        Em
  E me deixou num beco sem saída

Refrão:

              C
Estou indo embora
                   D
Por favor, não implora
                   Em
Porque homem não chora

              C
Estou indo embora agora
                   D
Por favor, não implora
                   Em
Porque homem não chora

              C
Estou indo embora agora
                   D
A mala já está lá fora
                   Em
Porque homem não chora
Добавлено: 30.07.2015
Вам также может быть интересно:
Другие материалы по этой песне:
  • Аккорды и текст

Страница создана 30.07.2015
http://primanota.ru/pablo/porque-homem-nao-chora-chords.htm
Привет, Гость.
Предлагаем пройти революционный курс по гитаре.
Подарок от PrimaNota.Ru, забирай!