PrimaNota.ru - самый крупный в мире бесплатный архив песенных текстов, аккордов, табулатур и нот


Pablo - O Homem Não Chora - аккорды и текст, видео

Регистрация Запомнить меня
Войти через:  Facebook Google Twitter Vk Yandex Mail.ru

Pablo - O Homem Não Chora - аккорды и текст, видео

Печатать
Просмотров: 138
O Homem Não Chora
Pablo
Tom: G
                
Intro: Em  C  G  D

Solo Intro:

Parte 1

E|-------------------------------------------|
B|----------5-7-8-7-5-7/8~-------------------|
G|-----2/4-----------------------------------|
D|-------------------------------------------|
A|-------------------------------------------|
E|-------------------------------------------|


Parte 2

E|---------------------------------------------------------|
B|---------------------------------------------------------|
G|----5-7-9-7-5-----2-4/5-4-4-2-2h4--4-4-4-2-0------0------|
D|-3/5-----------5------------------------------4-----4~---|
A|---------------------------------------------------------|
E|---------------------------------------------------------|


Parte 3   

E|-------------------------------------------|
B|---7-8-10-8-7------------------------------|
G|--------------9-12-11-9--7-7h9~------------|
D|-------------------------------------------|
A|-------------------------------------------|
E|-------------------------------------------|


Em                   C
   Estou indo embora, a mala já está lá fora.
       G               D
   Vou te deixar, vou te deixar
Em                       C                           G                   D
   Por favor não implora, por que homem não chora e não pede perdão. e não pede perdão.
Am                           D
   Você foi a culpada desse amor se acabar,
G               D/F#          Em
   Você quem destruiu a minha vida,
Am                           D
   Você que machucou meu coração me fez chorar,
G                  D/F#        Em
   E me deixou num beco sem saída.
                C                          D
   Estou indo embora agora, por favor não implora.
                     Em
   Por que homem não chora.
                C                            D
   Estou indo embora agora,a mala ja está lá fora
                     Em
   Por que homem não chora.

Base Solo Principal: Em C G D

Solo Intro:

Parte 1

E|-------------------------------------------|
B|----------5-7-8-7-5-7/8~-------------------|
G|-----2/4-----------------------------------|
D|-------------------------------------------|
A|-------------------------------------------|
E|-------------------------------------------|


Parte 2

E|---------------------------------------------------------|
B|---------------------------------------------------------|
G|----5-7-9-7-5-----2-4/5-4-4-2-2h4--4-4-4-2-0------7-7~---|
D|-3/5-----------5------------------------------4----------|
A|---------------------------------------------------------|
E|---------------------------------------------------------|


Parte 3   

E|-------------------------------------------|
B|---7-8-10-8-7---------10-12-13-------------|
G|--------------9-12-11----------8-9~--------|
D|-------------------------------------------|
A|-------------------------------------------|
E|-------------------------------------------|

 
Am                           D
   Você foi a culpada desse amor se acabar,
G                 D/F#        Em
   Você quem destruiu a minha vida,
Am                           D
   Você que machucou meu coração me fez chorar,
G                  D/F#       Em
   E me deixou num beco sem saída.
                 C                           D
   Estou indo embora agora, por favor não implora.
                     Em
   Por que homem não chora.
                C                             D
   Estou indo embora agora, a mala ja está lá fora
                     Em
   Por que homem não chora.
Добавлено: 30.07.2015
Вам также может быть интересно:
Другие материалы по этой песне:
  • Аккорды и текст

Страница создана 30.07.2015
http://primanota.ru/pablo/o-homem-nao-chora-chords.htm
Привет, Гость.
Предлагаем пройти революционный курс по гитаре.
Подарок от PrimaNota.Ru, забирай!