PrimaNota.ru - самый крупный в мире бесплатный архив песенных текстов, аккордов, табулатур и нот


Pablo Alboran - Llueve - таба, видео

Регистрация Запомнить меня
Войти через:  Facebook Google Twitter Vk Yandex Mail.ru

Pablo Alboran - Llueve - таба, видео

Печатать
Просмотров: 100
Уроки эстрадного вокала в Санкт-Петербурге
INTRO:

e|---0-----0------0------0--------0-------0------0--------0-----------------------------
B|---5-----5------5------5--------4-------4------4--------4-----------------------------
G|------4------4------4------4--------4------4-------4--------4-------------------------
D|--------------------------------------------------------------------------------------
A|--------------------------------------------------------------------------------------
E|--------------------------------------------------------------------------------------

e|---0-----0------0------0-------0--------0------0---------0----------------------------
B|------5------5------5------0---0--------0------0---------0----------------------------
G|---6-----6------6------6------------6------6--------6-------6-------------------------
D|--------------------------------------------------------------------------------------
A|-------------------------------4------------------------------------------------------
E|--------------------------------------------------------------------------------------


e|--0------0------0------0-------0-------0-------0---------0----------------------------
B|--0------0------0------0-------2-------2-------2---------2----------------------------
G|------4-----4-------4------4-------2-------2--------2--------2------------------------
D|--------------------------------------------------------------------------------------
A|--2-----------------------------------------------------------------------------------
E|----------------4--------------2------------------------------------------------------



e|--0-----0------0------0------------
B|--2-----2------2------2------------
G|------2-----2-----2----------------
D|-----------------------------------
A|-----------------------------------
E|--2--------------------------------




(I)(tocar 2 veces)

e|---0-----0------0------0--------0-------0------0--------0-----------------------------
B|---5-----5------5------5--------4-------4------4--------4-----------------------------
G|------4------4------4------4--------4------4-------4--------4-------------------------
D|--------------------------------------------------------------------------------------
A|--------------------------------------------------------------------------------------
E|--------------------------------------------------------------------------------------

e|---0-----0------0------0-------0--------0------0---------0----------------------------
B|---5-----5------5------5-------0--------0------0---------0----------------------------
G|------6-----6------6------6--------6------6--------6--------6-------------------------
D|--------------------------------------------------------------------------------------
A|-------------------------------4------------------------------------------------------
E|--------------------------------------------------------------------------------------


e|--0------0------0------0-----------------
B|--0------0------0------0-----------------
G|------4-----4-------4--------------------
D|-----------------------------------------
A|--2--------------------------------------
E|-----------------------------------------





(II)

e|----------------------------------------------------------
B|--0------0------0------0------0------0-------0------------
G|--2------2------2------2------4------4-------4------------
D|-----2------2------2------2-------4------4----------------
A|--0---------------------------2---------------------------
E|----------------------------------------------------------






(III)(tocar 2 veces)


e|---4------4------4------4-------------------------------------------------------------
B|---5------5------5------5--------4-------4------4--------4----------------------------
G|------6-------6-----6------6-----4-------4------4--------4----------------------------
D|-------------------------------------6------6-------6---------6-----------------------
A|---4----------------------------------------------------------------------------------
E|---------------------------------4----------------------------------------------------

e|--------------------------------------------------------------------------------------
B|--2------2------2------2---------0-------0------0--------0----------------------------
G|--1------1------1------1---------1-------1------1--------1----------------------------
D|------2------2------2------2---------2------2--------2--------------------------------
A|--0-----------------------------------------------------------------------------------
E|---------------------------------0----------------------------------------------------





Tocar II, I(2 veces), II, III(2 veces)





INSTRUMENTAL: (tocar III una sola vez como acompañamiento)

e|-9--7--5--4---2--2/4--0--2--4/9---9---7---------------------------------------12-12-12-11-9\7--
B|-10-9--7--5---4--4/5--2--4--5/10--10--5-----7--------------------------------------------------
G|------------------------------------------9---8----8/9--9--9/11--9\8--8\6--6-------------------
D|-----------------------------------------------------------------------------------------------
A|-----------------------------------------------------------------------------------------------
E|-----------------------------------------------------------------------------------------------

e|--12-12-12-11-9-7------------
B|-----------------------------
G|-----------------------------
D|-----------------------------
A|-----------------------------
E|-----------------------------





e|----------------------------------------------------------
B|--0------0------0------0------0------0-------0------------
G|--2------2------2------2------4------4-------4------------
D|-----2------2------2------2-------4------4-------4--------
A|--0---------------------------2---------------------------
E|----------------------------------------------------------


e|--------------------------------------------
B|--0------0------0------0------0-------------
G|--2------2------2------2------4-------------
D|-----2------2------2------2---4-------------
A|--0---------------------------2-------------
E|--------------------------------------------





OUTRO:

e|---0-----0------0------0--------0-------0------0--------0-----------------------------
B|---5-----5------5------5--------4-------4------4--------4-----------------------------
G|------4------4------4------4--------4------4-------4--------4-------------------------
D|--------------------------------------------------------------------------------------
A|--------------------------------------------------------------------------------------
E|--------------------------------------------------------------------------------------

e|---0-----0------0------0-------0--------0------0---------0----------------------------
B|---5-----5------5------5-------0--------0------0---------0----------------------------
G|------6-----6------6------6--------6------6--------6--------6-------------------------
D|--------------------------------------------------------------------------------------
A|-------------------------------4------------------------------------------------------
E|--------------------------------------------------------------------------------------



e|--0------0------0------0-------0-------0-------0---------0----------------------------
B|--0------0------0------0-------2-------2-------2---------2----------------------------
G|------4-----4-------4------4-------2-------2--------2--------2------------------------
D|--------------------------------------------------------------------------------------
A|--2-----------------------------------------------------------------------------------
E|----------------4--------------2------------------------------------------------------



e|--0-----0------0------0-------0-----
B|--2-----2------2------2-------0-----
G|------2-----2-----2-----------9-----
D|------------------------------9-----
A|------------------------------7-----
E|--2---------------------------0-----


Добавлено: 14.06.2016
Другие материалы по этой песне:
  • Аккорды и текст

Страница создана 14.06.2016
http://primanota.ru/pablo-alboran/llueve-chords.htm
Привет, Гость.
Предлагаем пройти революционный курс по гитаре.
Подарок от PrimaNota.Ru, забирай!