PrimaNota.ru - самый крупный в мире бесплатный архив песенных текстов, аккордов, табулатур и нот


P O D - Satellite - таба, видео

Регистрация Запомнить меня
Войти через:  Facebook Google Twitter Vk Yandex Mail.ru

P O D - Satellite - таба, видео

Печатать
Просмотров: 197
Title: Satellite
Band: P.O.D.
Album: Satellite
Tuning: Dropped C (CGCFAd)
Tabbed by: simpleppl@hotmail.com

--------------------------------
| ^ - harmonic  h - hammer on  |
| / - slide up  \ - slide down |
--------------------------------

 Intro*
d|---------------------------------|---------------------------------|
A|-------3-3-3-------3-3-3-----3---|-------0-0-0-------0-0-0-----0-0-|
F|-------4-4-4-------4-4-4-----4---|-------0-0-0-------0-0-0-----0-0-|
C|-2-2-2-------2-2-2-------2-2-----|---------------------------------|
G|-------------------------------0-|-3-3-3-------3-3-3-------3-3-----|
C|---------------------------------|---------------------------------|


d|---------------------------------|---------------------------------|
A|-------0-0-0-------0-0-0-----0---|-------0-0-0-0-0-0-0-0-0-0-0-0-0-|
F|-------0-0-0-------0-0-0-----0---|-------0-0-0-0-0-0-0-0-0-0-0-0-0-|
C|---------------------------------|---------------------------------|
G|-0-0-0-------0-0-0-------0-0---0-|-3-3-3---------------------------|
C|---------------------------------|---------------------------------|

  Pre-chorus/Chorus
d|--------------------------------------------------------------------------------|
A|--------------------------------------------------------------------------------|
F|-7/9-9-7/9--7/9--7/9--9-9-9----------------------------7^-7^-7^-7^-7^-----------|
C|-7/9-9-7/9--7/9--7/9--9-9-9-10-h-12-12-10-12--7^-7^-7^----------------7^-7^-7^--|
G|-5/7-7-5/7--5/7--5/7--7-7-7-10-h-12-12-10-12------------------------------------|
C|----------------------------10-h-12-12-10-12------------------------------------|


d|----------------------------------------------------------------------|
A|-----------------------------------------------------8-8-8-8-8-8-8-8--|
F|-----------------------------------------------------9-9-9-9-9-9-9-9--|
C|-5-h-7-7-5-7--5-7--5-7--7-7-7------5-7--7-p-5-------------------------|
G|-5-h-7-7-5-7--5-7--5-7--7-7-7--5-7------------7-5-0-------------------|
C|-5-h-7-7-5-7--5-7--5-7--7-7-7-----------------------------------------|


 Verse**
d|---------------------------------|---------------------------------|
A|-------3-3-3-------3-3-3-----3---|-------0-0-0-------0-0-0-----0-0-|
F|-------4-4-4-------4-4-4-----4---|-------0-0-0-------0-0-0-----0-0-|
C|-2-2-2-------2-2-2-------2-2-----|---------------------------------|
G|-------------------------------0-|-3-3-3-------3-3-3-------3-3-----|
C|---------------------------------|---------------------------------|


d|---------------------------------|---------------------------------|
A|-------0-0-0-------0-0-0-----0---|-------0-0-0-------0-0-0-----0-0-|
F|-------0-0-0-------0-0-0-----0---|-------0-0-0-------0-0-0-----0-0-|
C|---------------------------------|---------------------------------|
G|-0-0-0-------0-0-0-------0-0---0-|-3-3-3-------3-3-3-------3-3-----|
C|---------------------------------|---------------------------------|


 Bridge
d|--------------------------------------------------------------------------
A|----------------------------------------------------------------------***-
F|-9--9-9-9/11-11-11/12-12-12/14-14-14/16-16--[-16/17\16/17\16/17\16/17\-]--
C|--------------------------------------------[--------------------------]--
G|-7--7-7-7/9--9--9-/10-10-10/12-12-12/14-14--[-14/15\14/15\14/15\14/15\-]--
C|--------------------------------------------------------------------------


d|---------------------------------------------------------------------
A|-----------------------------------------------------------------***-
F|-16--16-16-16\14-14-14\12-12-12\11-11-11\9-9--[-9/11\9/11\9/11\9/-]--
C|----------------------------------------------[-------------------]--
G|-14--14-14-14\12-12-12\10-10-10\9--9--9-\7-7--[-7/9-\7/9-\7/9-\7/-]--
C|---------------------------------------------------------------------


 Chorus 2
d|--------------------------------------------------------------------------------|
A|--------------------------------------------------------------------------------|
F|-7/9-9-7/9--7/9--7/9--9-9-9----------------------------7^-7^-7^-7^-7^-----------|
C|-7/9-9-7/9--7/9--7/9--9-9-9-10-h-12-12-10-12--7^-7^-7^----------------7^-7^-7^--|
G|-5/7-7-5/7--5/7--5/7--7-7-7-10-h-12-12-10-12------------------------------------|
C|----------------------------10-h-12-12-10-12------------------------------------|


d|-----------------------------------------------------------------|
A|--------------------------------------0-0-0-------0-0-0-0-0-0-0--|
F|--------------------------------------0-0-0-------0-0-0-0-0-0-0--|
C|-5-h-7-7-5-7--5-7--5-7--7-7-7------------------------------------|
G|-5-h-7-7-5-7--5-7--5-7--7-7-7---3-3-3-------3-3-3----------------|
C|-5-h-7-7-5-7--5-7--5-7--7-7-7------------------------------------|


 End
d|-------|
A|----3--|
F|----4--|
C|-2-----|
G|-------|
C|-------|


Intro
Pre/Chorus
Verse (2x)
Intro
Pre/Chorus (2x)
Verse
Intro
Bridge
Chorus 2 (2x)
Verse
Intro
End

* notes played on the C & G strings are palm muted except the open notes in 1st & 3rd bars
** notes played on the C & G strings are paml muted except the open notes in the 1st & 4th bars
*** play bracketed piece twice
Добавлено: 22.10.2013
Другие материалы по этой песне:
  • Аккорды и текст

Страница создана 22.10.2013
http://primanota.ru/p-o-d/satellite-chords.htm
Привет, Гость.
Предлагаем пройти революционный курс по гитаре.
Подарок от PrimaNota.Ru, забирай!