PrimaNota.ru - самый крупный в мире бесплатный архив песенных текстов, аккордов, табулатур и нот


P O D - Freestyle - аккорды и текст, таба, видео

Регистрация Запомнить меня
Войти через:  Facebook Google Twitter Vk Yandex Mail.ru

P O D - Freestyle - аккорды и текст, таба, видео

Печатать
Просмотров: 153
Freestyle
P O D
		   SONG: Freestyle
	     BAND: P.O.D
	    ALBUM: The Fundamental Elements of Southtown
   TRANSCRIBED BY: Josh Brown (joshbrown311@hotmail.com)

	TUNING: drop d (D,A,D,G,B,E)



     INTRO PART A:

    |--------------------|
    |------5-5--6-6--5-5-|
    |--------------------|
    |--------------------|
    |-0-0----------------|
    |--------------------|

     INTRO PART B:

    |--------------------|
    |------5----6-6--5-5-|
    |--------7-----------|
    |--------------------|
    |-0-0----------------|
    |--------------------|

     VERSE:

    |------------------------------------|
    |------------------------------------|
    |-7-7-7-7-7-7-7-7-5-5-5-10-10-10-9-9-|
    |-7-7-7-7-7-7-7-7-5-5-5-10-10-10-9-9-|
    |-5-5-5-5-5-5-5-5-3-3-3--8--8--8-7-7-|
    |------------------------------------|

     PRE-CHORUS:

    |---------------------------------|
    |---------------------------------|
    |-7-7-7-7-7-7-7-7-7-7-7-7-7-7-7-7-|
    |-7-7-7-7-7-7-7-7-7-7-7-7-7-7-7-7-|
    |-5-5-5-5-5-5-5-5-5-5-5-5-5-5-5-5-|
    |---------------------------------|

     CHORUS:

    |-----------------------------------|
    |-----------------------------------|
    |-----12-12-12-12\11-11-11-11-11/12-|
    |-----12-12-12-12\11-11-11-11-11/12-|
    |-----10-10-10-10\-9--9--9--9--9/10-|
    |-5-5-------------------------------|

     BRIDGE:

    |--------------------------|
    |--------------------------|
    |--------------------------|
    |-5-5-5--5-0-----0-8---0-8-|
    |-5-5-5--5-0-----0-8---0-8-|
    |-5-5-5--5-0-----0-8---0-8-|     
Добавлено: 11.09.2013
Другие материалы по этой песне:
  • Аккорды и текст

Страница создана 02.07.2013
http://primanota.ru/p-o-d/freestyle-chords.htm
Привет, Гость.
Предлагаем пройти революционный курс по гитаре.
Подарок от PrimaNota.Ru, забирай!