PrimaNota.ru - самый крупный в мире бесплатный архив песенных текстов, аккордов, табулатур и нот


P O D - Alive - таба, видео

Регистрация Запомнить меня
Войти через:  Facebook Google Twitter Vk Yandex Mail.ru

P O D - Alive - таба, видео

Печатать
Просмотров: 288
P O D - Alive

INTRO

|-------------------------------------|  
|-------------------------------------|x2
|-----------2222-55555555-5555--------|  
|--222-0-2--2222-55555555-5555-555----|  
|--222-0-2--0000-33333333-3333-555----|  
|--222-0-2---------------------555----|  


VERSE
	                          (...ending 1..)   (..ending 2.. played instead of ending 1 4th time)
|-------------------------|-------------|   |------------|
|-------------------------|-------------|x4 |------------|
|-----------2222-55555555-|-5555--------|   |------------|
|--222-0-2--2222-55555555-|-5555-555----|   |--55-22-55--|
|--222-0-2--0000-33333333-|-3333-555----|   |--55-22-55--|
|--222-0-2----------------|------555----|   |--55-22-55--|


CHORUS

|--------------------------------------------------------------------|--------------------|
|--------------------------------------------------------------------|--------------------|x2
|--55555555-55555555-------------------------------------------------|--------------------|
|--55555555-55555555-0-2222222222222222--5555555555555-0-55555555----|--5p4-0-4/3-0-------|
|--33333333-55555555-0-2222222222222222--5555555555555-0-55555555----|--------------2-----|
|--------------------0-2222222222222222--5555555555555-0-55555555----|--------------------|

INTERLUDE
            (................play during last chorus................)
|-----------|-14h15p14-14h15p14-14h15p14-14h15p14-14h15p14----------|
|-----------|-------------------------------------------------------|
|-----------|-------------------------------------------------------|
|-----------|-------------------------------------------------------|
|--2-5-4-0--|-------------------------------------------------------|
|-----------|-------------------------------------------------------|


Intro
Verse
Chorus
Verse
Chorus
Interlude
Chorus
Добавлено: 11.10.2013
Другие материалы по этой песне:
  • Аккорды и текст

Страница создана 10.06.2013
http://primanota.ru/p-o-d/alive-chords.htm
Привет, Гость.
Предлагаем пройти революционный курс по гитаре.
Подарок от PrimaNota.Ru, забирай!