PrimaNota.ru - самый крупный в мире бесплатный архив песенных текстов, аккордов, табулатур и нот


P-model - Junglebed I - таба, видео

Регистрация Запомнить меня
Войти через:  Facebook Google Twitter Vk Yandex Mail.ru

P-model - Junglebed I - таба, видео

Печатать
Просмотров: 32
Junglebed I
P-Model
'Potpourri' LP
Transcribed by Luke Borley

main riff

E|-------------|---------------------------------|---------------------|---------------------------|
B|-------------|---------------------------------|---------------------|---------------------------|
G|-------------|---------------------------------|---------------------|---------------------------| x4
D|-------------|-4-----------9-----------9---12--|-11--------13--------|---------------------------|
A|-------------|-----5-----------10--------------|------12--------14---|-9---9---------------------|
E|-0-----6{^}--|---------6-----------11----------|---------------------|---------10---11---7---7---|


E|---------------------|-----------------|
B|---------------------|-----------------|
G|---------------------|-----------------|
D|------4---------5----|------2----------| x4 'Woo!'& drum fill (first & third time around)
A|------4---------5----|------2----------|
E|-2---------3---------|-0---------------|


E|-------------|---------------------------------|---------------------|---------------------------|
B|-------------|---------------------------------|---------------------|---------------------------|
G|-------------|---------------------------------|---------------------|---------------------------| x4
D|-------------|-4-----------9-----------9---12--|-11--------13--------|---------------------------|
A|-------------|-----5-----------10--------------|------12--------14---|-9---9---------------------|
E|-0-----6{^}--|---------6-----------11----------|---------------------|---------10---11---7---7---|


E|---------------------|-----------------|
B|---------------------|-----------------|
G|---------------------|-----------------| 
D|------7---------5----|------6----------|x4 'Woo!'& drum fill (second and fourth time around)
A|------7---------5----|------6----------|
E|-5---------3---------|-4---------------|
Добавлено: 03.05.2016
Вам также может быть интересно:
Другие материалы по этой песне:
  • Аккорды и текст

Страница создана 03.05.2016
http://primanota.ru/p-model/junglebed-i-chords.htm
Привет, Гость.
Предлагаем пройти революционный курс по гитаре.
Подарок от PrimaNota.Ru, забирай!