PrimaNota.ru - самый крупный в мире бесплатный архив песенных текстов, аккордов, табулатур и нот


P M Dawn - Ill Be Waiting For You - аккорды и текст, видео

Регистрация Запомнить меня
Войти через:  Facebook Google Twitter Vk Yandex Mail.ru

P M Dawn - Ill Be Waiting For You - аккорды и текст, видео

Печатать
Просмотров: 149
Уроки эстрадного вокала в Санкт-Петербурге
Ill Be Waiting For You
P M Dawn
I'll Be Waiting For You- P.M. Dawn
------------------------
samples- Pacific by 808 state

this is really a GREAT song to play if you have a keyboard with string voice
the notes go

F A C E ---> G B D F# ---> C E G B ---> D F# A C#

IF YOU'VE GOT A GUITAR WITH ANY EFFECTS PEDALS, PLAYING ALONG WITH
THE SONG WOULD SOUND PRETTY COOL, JUST USE THE TAB IN SYNC WITH THE
MUSIC

Note- all chords are 4 beats in length
B---5------7---0---------------2-
G---5------7---0---------------2-
D---7------9---2---------------4-
A---8-----10---3---------------5-
  Baby....baby, I know ....


(chorus)
B---5-------------7-----------0-----------------------------2-
G---5-------------7-----------0-----------------------------2-
D---7-------------9-----------2-----------------------------4-
A---8------------10-----------3-----------------------------5-
I'll be waiting for you, even ...
I'll be waiting for you, 'till ....
     
Добавлено: 04.07.2013
Другие материалы по этой песне:
  • Аккорды и текст

Страница создана 04.07.2013
http://primanota.ru/p-m-dawn/ill-be-waiting-for-you-chords.htm
Привет, Гость.
Предлагаем пройти революционный курс по гитаре.
Подарок от PrimaNota.Ru, забирай!