PrimaNota.ru - самый крупный в мире бесплатный архив песенных текстов, аккордов, табулатур и нот


Ozzy Osbourne - Suicide Solution - текст песни, таба, бас-таба, видео

Регистрация Запомнить меня
Войти через:  Facebook Google Twitter Vk Yandex Mail.ru

Ozzy Osbourne - Suicide Solution - текст песни, таба, бас-таба, видео

Печатать
Просмотров: 267
Авторы: Randy Rhoads, Ozzy Osbourne, Bob Daisley

Tabbed By: Mondo

Tuning: 1-Whole step down Low to High (D G C F A D)

Start trills for long time, holds bend long
D-----------------------------------|
A-----------------------------------|
F-----------------------------------|
C-0tr2------------------------------|
G-----------------------------------|
D-------3b(5)--3b(5)--3b(5)--3b(5)--|

do this all twice getting faster each time
D--------12-------------12-------------12-------------12-------------12--------------|
A-15(17)---15-12-15(17)---15-12-15(17)---15-12-15(17)---15-12-15(17)---15-12-15(17)--|
F------------------------------------------------------------------------------------|
C------------------------------------------------------------------------------------|
G------------------------------------------------------------------------------------|
D------------------------------------------------------------------------------------|

Repeat lots of times
D-12-12-17-15-12-12-12-17-15-12-12-12-17-15-12-12------------------------------------------------|
A-------------------------------------------------15-12-12-15-12-12-----------------15-12-12-15--|
F------------------------------------------------------------------14-12-12-14-12-12-------------|
C------------------------------------------------------------------------------------------------|
G------------------------------------------------------------------------------------------------|
D------------------------------------------------------------------------------------------------|

D---12--14--15--17--15--14--12-----------|
A-12--12--12--12--12--12--12--12-15(17)--|
F----------------------------------------|
C----------------------------------------|
G----------------------------------------|
D----------------------------------------|

D---------------------------------------------------------------|
A-15-12-----15-12-----16-13-----16-13-----17-14------17-14------|
F------14-12-----14-12-----15-13-----15-13-----16-14------16-14-|
C---------------------------------------------------------------|
G---------------------------------------------------------------|
D---------------------------------------------------------------|

Repeat a couple of times
D-12------15(17)-(17)r15-12----------|
A---15-12-------------------15(17)---|
F------------------------------------|
C------------------------------------|
G------------------------------------|
D------------------------------------|

D------------------------------------------------------------12-15-18-----------------------|
A-----------------------------------------------------------------12-15-18--------12-15-18--|
F-----------------------------------------12-15-18--------12-15-18--------12-15-18----------|
C-----------------12-15-18--------12-15-18--------12-15-18----------------------------------|
G---------12-15-18--------12-15-18----------------------------------------------------------|
D-12-15-18----------------------------------------------------------------------------------|

Repeat bend lots of times,do other bit twice
D-17------17---------16-15---------14--|
A-16--------16-----15-----14-----13----|
F-15(17)------15-14---------13-12------|
C--------------------------------------|
G--------------------------------------|
D--------------------------------------|

Bit over his head
D--------------------------------------------------------------|
A-12-12-17-15-12-12-12-17-15-12-12-12-17-15-12-12-12-17-15-12--|
F--------------------------------------------------------------|
C--------------------------------------------------------------|
G--------------------------------------------------------------|
D--------------------------------------------------------------|

D----------------------------------------------------------------------|
A------------------12-14-15-12-14-15-----------------12-14-15-12-14-15-|
F-12-14-15-12-14-15-----------------12-14-15-12-14-15------------------|
C----------------------------------------------------------------------|
G----------------------------------------------------------------------|
D----------------------------------------------------------------------|

D----------------------------------------------------------------------------------------|
A-----------------------------------12-14-15-12-14-15------------------------------------|
F------------------12-14-15-12-14-15-----------------12-14-15-12-14-15-------------------|
C-12-14-15-12-14-15---------------------------------------------------12-14-15-12-14-15--|
G----------------------------------------------------------------------------------------|
D----------------------------------------------------------------------------------------|

D-12------15(17)-(17)r15-12---------|
A---15-12-------------------15(17)--|
F-----------------------------------|
C-----------------------------------|
G-----------------------------------|
D-----------------------------------|

Bit with teeth
D--------------------------------------------------------------------|
A-------15------15------15------15-------15------15------15------15--|
F-14(16)--14(16)--14(16)--14(16)---14(16)--14(16)--14(16)--14(16)----|
C--------------------------------------------------------------------|
G--------------------------------------------------------------------|
D--------------------------------------------------------------------|

D------------------------------------------------------12-14-15-14-12---------15-14-12-----------|
A----------12-14-15----------12-14-15----------12-14-15--------------15-14-12----------15-14-12--|
F-12-14-15----------12-14-15----------12-14-15---------------------------------------------------|
C------------------------------------------------------------------------------------------------|
G------------------------------------------------------------------------------------------------|
D------------------------------------------------------------------------------------------------|

D-15-14-12---------15-14-12---------------------------------------0--0-0-0-0--p-----------------|
A---------15-14-12----------15-14-12----12------------------------0--0-0-0-0----i---------------|
F------------------------------------15----15-14-12---------------1--1-1-1-1------c-------------|
C---------------------------------------------------14------------2--2-2-2-2--------k-----------|
G-----------------------------------------------------------------2--2-2-2-2----------s---------|
D-----------------------------------------------------------3(5)--0--0-0-0-0------------l-i-d-e-|

Plays Miracle man riff then plays this
D----------------------------|
A--------------------22------|
F----------------------------|
C----------------------------|
G----------------------------|
D-/22(24)-/22(24)-/22---22\--|

D-------------------------------------------------------------------------|
A-------------------------------------------------------------------------|
F-------------------------------------------------------------------------|
C-------------------------------------------------------------------------|
G------------5-7-8-5-7-8-----------6-8-9-6-8-9-------------7-9-10-7-9-10--|
D-5-7-8-5-7-8-----------6-8-9-6-8-9-----------7-9-10-7-9-10---------------|

D------------------------------------------------------------------------------------------------|
A------------------------------------------------------------------------------------------------|
F------------------------------------------------------------------------------------------------|
C------------------------------------------------------------------------------------------------|
G----------------8-10-11-8-10-11---------------9-11-12-9-11-12-----------------10-12-13-10-12-13-|
D-8-10-11-8-10-11---------------9-11-12-9-11-12---------------10-12-13-10-12-13------------------|

D----------------------------------------------------------------------|
A----------------------------------------------------------------------|
F----------------------------------------------------------------------|
C----------------------------------------------------------------------|
G------------------11-13-14-11-13-14-----------------12-14-15-12-14-15-|
D-11-13-14-11-13-14-----------------12-14-15-12-14-15------------------|

Repeat by going up one fret each time until you reach the 15th fret
D-12-12-17-12-17-12------------------------------------------------------------------------------|
A------------------15-12-12-15-12-12---------------------------------------------------15-12-12--|
F-----------------------------------14-12-12-14-12-12-----------------14-12-12-14-12-12----------|
C----------------------------------------------------14-12-12-14-12-12---------------------------|
G------------------------------------------------------------------------------------------------|
D------------------------------------------------------------------------------------------------|

D-15-15-20-18-15-15-20-18-15-15-20-18-15-15-20-18-15-15-16-16-21-19-16-16-21-19-16-16-|
A-------------------------------------------------------------------------------------|
F-------------------------------------------------------------------------------------|
C-------------------------------------------------------------------------------------|
G-------------------------------------------------------------------------------------|
D-------------------------------------------------------------------------------------|

D-21-19-16-16-21-19-16-16-17-17-22-20-17-17-22-20-17-22-20-17-17-22-20-17-22-20-17-17-22-20-17-|
A----------------------------------------------------------------------------------------------|
F----------------------------------------------------------------------------------------------|
C----------------------------------------------------------------------------------------------|
G----------------------------------------------------------------------------------------------|
D----------------------------------------------------------------------------------------------|

D-22-20-17-17-22-20-17-17-20-22-20-17-20-22-20-17-20-22-20-17-20-22-20-17-20-22-20-17-20-22-20-17--|
A--------------------------------------------------------------------------------------------------|
F--------------------------------------------------------------------------------------------------|
C--------------------------------------------------------------------------------------------------|
G--------------------------------------------------------------------------------------------------|
D--------------------------------------------------------------------------------------------------|

D-20-22-20-17-20-22-20-17-20-22-20-17-20-22-20-17-20-22-20-17-20-22-20-17-20-22-20-17-20-22-20-17--|
A--------------------------------------------------------------------------------------------------|
F--------------------------------------------------------------------------------------------------|
C--------------------------------------------------------------------------------------------------|
G--------------------------------------------------------------------------------------------------|
D--------------------------------------------------------------------------------------------------|

Slide down neck whilst picking
D-1/...20\...1--------------------------0--|
A---------------------------------------0--|
F---------------------------------------1--|
C---------------------------------------2--|
G---------------------------------------2--|
D----------------/22(24)-/22(24)-3(5)---0--|

Repeat three times
D-------------------------------|
A-14(15)r14--14-12---------12\--|
F-14(15)r14--14-12---------12\--|
C------------------14-14~-------|
G-------------------------------|
D-------------------------------|

D-----3---3(5)-3---3(5)-3---3(5)-3---3(5)-3---3(5)-3---3(5)-3---3(5)-3---3(5)-3---3(5)-3---3(5)-|
A------5-3------5-3------5-3------5-3------5-3------5-3------5-3------5-3------5-3------5-3-----|
F-----------------------------------------------------------------------------------------------|
C-----------------------------------------------------------------------------------------------|
G-----------------------------------------------------------------------------------------------|
D-/20\------------------------------------------------------------------------------------------|

D-5-3-5-3---5-3-5-3---5-3-5-3---5-3-5-3---5-3-5-3---5-3-5-3---5-3-5-3---5-3-5-3-----|
A--------5-3-------5-3-------5-3-------5-3-------5-3-------5-3-------5-3-------5-3--|
F-----------------------------------------------------------------------------------|
C-----------------------------------------------------------------------------------|
G-----------------------------------------------------------------------------------|
D-----------------------------------------------------------------------------------|

D-5-3---6-4---7-5---8-6---9-7-----|
A----5-3---6-4---7-5---8-6---9-7--|
F---------------------------------|
C---------------------------------|
G---------------------------------|
D---------------------------------|

trem picking, repeat a few times, slide your right had up the neck and hammer on
D-12-16-19-17-16-17-14-16---------------------------------------------------------0--|
A---------------------------------------------------------------------------------0--|
F---------------------------------17h16h17h15h17h14h17h13h17h12h17h11h17h10h17h9--1--|
C---------------------------------------------------------------------------------2--|
G---------------------------------------------------------------------------------2--|
D---------------------------------------------------------------------------------0--|


NATIONAL ANTHEM by Rick Anderson


|------------------------------------------------------0-------|
|------------------------------------------------------0-------|
|---------------------2---------h--h-------------------1-------|
|------h-h------------2---/11--9-11-9---7-------p-h----2-------|
|--7--4-7-4-----4--7--0--------------------4---6-4-6---2-------|
|------------5-------------------------------------------------|

		    tr
|--------------------------------------------------------------|
|----------b---------------------------------------------------|
|---------4-(6)--2424242---------------------------------2-----|
|--------------------------/6---4--6---7---7-------------2-----|
|-/7--7----------------------------------------7----4----0-----|
|--------------------------------------------------------------|

						trill
|----------------------------------------------h--h------------|
|--------h-h--------------------b-------/14--12-14-12---10-----|
|-/9----6-9-6----6----6---9---12-(14)--------------------------|
|----------------7---------------------------------------------|
|---------------(0)--------------------------------------------|
|--------------------------------------------------------------|


						tr
|------------------0----------------b--------------------------|
|------------------0--------------12-(14)----10-12-10---9------|
|-/6---8/6\8---9---1------9---9--------------------------------|
|------------------2-------------------------------------------|
|------------------2-------------------------------------------|
|------------------0-------------------------------------------|
				   Trill section~~~~~~~~~~~~~~~
|-------------------------------------9---9--9--10--12---12----|
|--7/9----10---10---/5---/2---2--------------------------------|
|-----------------------------2--------------------------------|
|-----------------------------2--------------------------------|
|-----------------------------0--------------------------------|
|--------------------------------------------------------------|

Fast Run that Repeats			Trill~~~~~~~~~~~~~~~~~~~

|-12-10-9-----------------9-10-12--|---10-9-7-9-10---10--------|
|---------12-10-9-9-10-12----------|---------------------------|
|.--------------------------------.|---------------------------|
|.--------------------------------.|---------------------------|
|----------------------------------|---------------------------|
|----------------------------------|---------------------------|
					Trill~~~~~~~~~~~~~~~~~~~~

|----10-9-7---------------7-9-10--|----10--9--7----------------|
|-----------10-9-7-7-9-10---------|--------------10--12--10----|
|.-------------------------------.|----------------------------|
|.-------------------------------.|----------------------------|
|---------------------------------|----------------------------|
|---------------------------------|----------------------------|

				/\/\/\/\/\/\
|--------------------------------------------0-----------------|
|---9---7-9-10-------------------------------0-----------------|
|------------------6---8\6/8---9-9---9-------1-----------------|
|--------------------------------------------2-----------------|
|--------------------------------------------2-----------------|
|--------------------------------------------0-----------------|


|--------------------------------------------------------------|
|--------------------------------------------------------------|
|--------------------------------------h-----------------------|
|----------7--7---7---6-7-6-----------7-9---/12--11---9--7--7--|
|---7---7--------------------9--9--9---------------------------|
|--------------------------------------------------------------|


						     /\/\/\/\/\
|-------------------------------------------------b------------|
|-----------------------------------10--12--14--15-(17)--------|
|-----------------------------9--9-----------------------------|
|--9---7-9-7---6-----------------------------------------------|
|--------------------------------------------------------------|
|--------------------16///-------------------------------------|


|--------------------------------------------------------------|
|---10--12---14----15---12----10----10-------------------------|
|------------------------------x-----x-------------------------|
|------------------------------7-----7-------------------------|
|-----------------------------------(0)------------------------|
|--------------------------------------------------------------|
Добавлено: 09.05.2012
Другие материалы по этой песне:

Страница создана 15.03.2012
http://primanota.ru/ozzy-osbourne/suicide-solution-chords.htm
Привет, Гость.
Предлагаем пройти революционный курс по гитаре.
Подарок от PrimaNota.Ru, забирай!