PrimaNota.ru - самый крупный в мире бесплатный архив песенных текстов, аккордов, табулатур и нот


Ozzy Osbourne - Speak Of The Devil - таба, видео

Регистрация Запомнить меня
Войти через:  Facebook Google Twitter Vk Yandex Mail.ru

Ozzy Osbourne - Speak Of The Devil - таба, видео

Печатать
Просмотров: 127
Band- Ozzy Osbourne
Album- Speak Of The Devil

1.SYMPTOM OF THE UNIVERSE

[f]
 G G G G G G G C# C#  G G G G G G G D G# G#  G G G G G G G C# C# G G G G G G G  D C# C#
----------------------------------------------------------------------------------------|
----------------------------------------------------------------------------------------|
----------------------------------------------------------------------------------------|
----------------6--6----------------7-44--4-----------------6--6-----------------7-6--6-|
-5-5-5-5-5-5-5--4--4-5-5-5-5-5-5-5--5-22--2--5-5-5-5-5-5-5--4--4--5-5-5-5-5-5-5--5-4--4-|
-3-3-3-3-3-3-3-------3-3-3-3-3-3-3-----------3-3-3-3-3-3-3--------3-3-3-3-3-3-3---------|
 {.slight pm.}      {.slight pm.}           {.slight pm.}        {.slight pm.}
 (Guitar only)

 G G G G G G G C# C#  G G G G G G G D G# G#  G G G G G G G C# C# G G G G G G G  D C# C#
----------------------------------------------------------------------------------------|
----------------------------------------------------------------------------------------|
----------------------------------------------------------------------------------------|
----------------6--6----------------7-44--4-----------------6--6-----------------7-6--6-|
-5-5-5-5-5-5-5--4--4-5-5-5-5-5-5-5--5-22--2--5-5-5-5-5-5-5--4--4--5-5-5-5-5-5-5--5-4--4-|
-3-3-3-3-3-3-3-------3-3-3-3-3-3-3-----------3-3-3-3-3-3-3--------3-3-3-3-3-3-3---------|
 {.slight pm.}      {.slight pm.}           {.slight pm.}        {.slight pm.}
 (drums and bass begin)

  F    C#   C       F    C#   C
----------------------------------|
----------------------------------|
----------------------------------|
-10----6----5------10----6----5---|
--8----4----3-------8----4----3---|
----------------------------------|

 G G G G G G G C# C#  G G G G G G G D G# G#  G G G G G G G C# C# G G G G G G G  D C# C#
----------------------------------------------------------------------------------------|
----------------------------------------------------------------------------------------|
----------------------------------------------------------------------------------------|
----------------6--6----------------7-44--4-----------------6--6-----------------7-6--6-|
-5-5-5-5-5-5-5--4--4-5-5-5-5-5-5-5--5-22--2--5-5-5-5-5-5-5--4--4--5-5-5-5-5-5-5--5-4--4-|
-3-3-3-3-3-3-3-------3-3-3-3-3-3-3-----------3-3-3-3-3-3-3--------3-3-3-3-3-3-3---------|
 {.slight pm.}      {.slight pm.}           {.slight pm.}        {.slight pm.}

 G G G G G G G C# C#  G G G G G G G D G# G#  G G G G G G G C# C# G G G G G G G  D C# C#
----------------------------------------------------------------------------------------|
----------------------------------------------------------------------------------------|
----------------------------------------------------------------------------------------|
----------------6--6----------------7-44--4-----------------6--6-----------------7-6--6-|
-5-5-5-5-5-5-5--4--4-5-5-5-5-5-5-5--5-22--2--5-5-5-5-5-5-5--4--4--5-5-5-5-5-5-5--5-4--4-|
-3-3-3-3-3-3-3-------3-3-3-3-3-3-3-----------3-3-3-3-3-3-3--------3-3-3-3-3-3-3---------|
 {.slight pm.}      {.slight pm.}           {.slight pm.}        {.slight pm.}
 Take me through the centuries to super sonic years
 Electrifying enemy is drowning in his tears

 G G G G G G G C# C#  G G G G G G G D G# G#  G G G G G G G C# C# G G G G G G G  D C# C#
----------------------------------------------------------------------------------------|
----------------------------------------------------------------------------------------|
----------------------------------------------------------------------------------------|
----------------6--6----------------7-44--4-----------------6--6-----------------7-6--6-|
-5-5-5-5-5-5-5--4--4-5-5-5-5-5-5-5--5-22--2--5-5-5-5-5-5-5--4--4--5-5-5-5-5-5-5--5-4--4-|
-3-3-3-3-3-3-3-------3-3-3-3-3-3-3-----------3-3-3-3-3-3-3--------3-3-3-3-3-3-3---------|
 {.slight pm.}      {.slight pm.}           {.slight pm.}        {.slight pm.}
 All I have to give you is a love that never dies,
 The symptom of the universe is written in your eyes!

  F    C#   C       F    C#   C
----------------------------------|
----------------------------------|
----------------------------------|
-10----6----5------10----6----5---|
--8----4----3-------8----4----3---|
----------------------------------|
 Yeaaaaaaaaah!     Yeaaaaaaaaaaaahh!

 G G G G G G G C# C#  G G G G G G G D G# G#  G G G G G G G C# C# G G G G G G G  D C# C#
----------------------------------------------------------------------------------------|
----------------------------------------------------------------------------------------|
----------------------------------------------------------------------------------------|
----------------6--6----------------7-44--4-----------------6--6-----------------7-6--6-|
-5-5-5-5-5-5-5--4--4-5-5-5-5-5-5-5--5-22--2--5-5-5-5-5-5-5--4--4--5-5-5-5-5-5-5--5-4--4-|
-3-3-3-3-3-3-3-------3-3-3-3-3-3-3-----------3-3-3-3-3-3-3--------3-3-3-3-3-3-3---------|
 {.slight pm.}      {.slight pm.}           {.slight pm.}        {.slight pm.}

 G G G G G G G C# C#  G G G G G G G D G# G#  G G G G G G G C# C# G G G G G G G  D C# C#
----------------------------------------------------------------------------------------|
----------------------------------------------------------------------------------------|
----------------------------------------------------------------------------------------|
----------------6--6----------------7-44--4-----------------6--6-----------------7-6--6-|
-5-5-5-5-5-5-5--4--4-5-5-5-5-5-5-5--5-22--2--5-5-5-5-5-5-5--4--4--5-5-5-5-5-5-5--5-4--4-|
-3-3-3-3-3-3-3-------3-3-3-3-3-3-3-----------3-3-3-3-3-3-3--------3-3-3-3-3-3-3---------|
 {.slight pm.}      {.slight pm.}           {.slight pm.}        {.slight pm.}
 Mother Moon she's calling me back to her silver womb,
 Father of Creation takes me from my stolen tomb.

 G G G G G G G C# C#  G G G G G G G D G# G#  G G G G G G G C# C# G G G G G G G  D C# C#
----------------------------------------------------------------------------------------|
----------------------------------------------------------------------------------------|
----------------------------------------------------------------------------------------|
----------------6--6----------------7-44--4-----------------6--6-----------------7-6--6-|
-5-5-5-5-5-5-5--4--4-5-5-5-5-5-5-5--5-22--2--5-5-5-5-5-5-5--4--4--5-5-5-5-5-5-5--5-4--4-|
-3-3-3-3-3-3-3-------3-3-3-3-3-3-3-----------3-3-3-3-3-3-3--------3-3-3-3-3-3-3---------|
 {.slight pm.}      {.slight pm.}           {.slight pm.}        {.slight pm.}
 Seven hundred unicorn is waiting in the skies,
 A symptom of the universe, a love that never dies!

  F    C#   C       F    C#   C
----------------------------------|
----------------------------------|
----------------------------------|
-10----6----5------10----6----5---|
--8----4----3-------8----4----3---|
----------------------------------|
 Yeaaaaaaaaah!     Yeaaaaaaaaaaaahh!

BRIDGE (1:58)
---------------------------------------------------------------------------------|
---------------------------------------------------------------------------------|
---------------------------------------------------------------------------------|
--7-8-5-7--5---------5\(3)--7-8-5-7--5----------5\(3)--7-8-5-7--5---------5\(3)--|
---------8---8p5-7h8-3\(1)---------8----8p5-7h8-3\(1)---------8---8p5-7h8-3\(1)--|
---------------------------------------------------------------------------------|

---------------------------------------------------------------------------------|
---------------------------------------------------------------------------------|
---------------------------------------------------------------------------------|
--7-8-5-7--5---------5\(3)--7-8-5-7--5----------5\(3)--7-8-5-7--5---------5\(3)--|
---------8---8p5-7h8-3\(1)---------8----8p5-7h8-3\(1)---------8---8p5-7h8-3\(1)--|
---------------------------------------------------------------------------------|

-------------------------------------------------------|
-------------------------------------------------------|
-------------------------------------------------------|
--7-8-5-7--5---------5\(3)--7-8-5-7--5----------5\(3)--|
---------8---8p5-7h8-3\(1)---------8----8p5-7h8-3\(1)--|
-------------------------------------------------------|

  F    C#   C       F    C#   C
----------------------------------|
----------------------------------|
----------------------------------|
-10----6----5------10----6----5---|
--8----4----3-------8----4----3---|
----------------------------------|

 G G G G G G G C# C#  G G G G G G G D G# G#  G G G G G G G C# C# G G G G G G G  D C# C#
----------------------------------------------------------------------------------------|
----------------------------------------------------------------------------------------|
----------------------------------------------------------------------------------------|
----------------6--6----------------7-44--4-----------------6--6-----------------7-6--6-|
-5-5-5-5-5-5-5--4--4-5-5-5-5-5-5-5--5-22--2--5-5-5-5-5-5-5--4--4--5-5-5-5-5-5-5--5-4--4-|
-3-3-3-3-3-3-3-------3-3-3-3-3-3-3-----------3-3-3-3-3-3-3--------3-3-3-3-3-3-3---------|
 {.slight pm.}      {.slight pm.}           {.slight pm.}        {.slight pm.}

 G G G G G G G C# C#  G G G G G G G D G# G#  G G G G G G G C# C# G G G G G G G  D C# C#
----------------------------------------------------------------------------------------|
----------------------------------------------------------------------------------------|
----------------------------------------------------------------------------------------|
----------------6--6----------------7-44--4-----------------6--6-----------------7-6--6-|
-5-5-5-5-5-5-5--4--4-5-5-5-5-5-5-5--5-22--2--5-5-5-5-5-5-5--4--4--5-5-5-5-5-5-5--5-4--4-|
-3-3-3-3-3-3-3-------3-3-3-3-3-3-3-----------3-3-3-3-3-3-3--------3-3-3-3-3-3-3---------|
 {.slight pm.}      {.slight pm.}           {.slight pm.}        {.slight pm.}
 Take my hand, my child of love, Come step inside my tears,
 Swim the magic ocean I've been crying all these years.

 G G G G G G G C# C#  G G G G G G G D G# G#  G G G G G G G C# C# G G G G G G G  D C# C#
----------------------------------------------------------------------------------------|
----------------------------------------------------------------------------------------|
----------------------------------------------------------------------------------------|
----------------6--6----------------7-44--4-----------------6--6-----------------7-6--6-|
-5-5-5-5-5-5-5--4--4-5-5-5-5-5-5-5--5-22--2--5-5-5-5-5-5-5--4--4--5-5-5-5-5-5-5--5-4--4-|
-3-3-3-3-3-3-3-------3-3-3-3-3-3-3-----------3-3-3-3-3-3-3--------3-3-3-3-3-3-3---------|
 {.slight pm.}      {.slight pm.}           {.slight pm.}        {.slight pm.}
 With our love qwe'll ride away into eternal skies,
 A symptom of the universe, a love that never dies!

  F    C#   C       F    C#   C
----------------------------------|
----------------------------------|
----------------------------------|
-10----6----5------10----6----5---|
--8----4----3-------8----4----3---|
----------------------------------|
 Yeaaaaaaaaah!     Yeaaaaaaaaaaaahh!

BRIDGE (3:13)
---------------------------------------------------------------------------------|
---------------------------------------------------------------------------------|
---------------------------------------------------------------------------------|
--7-8-5-7--5---------5\(3)--7-8-5-7--5----------5\(3)--7-8-5-7--5---------5\(3)--|
---------8---8p5-7h8-3\(1)---------8----8p5-7h8-3\(1)---------8---8p5-7h8-3\(1)--|
---------------------------------------------------------------------------------|
                     Psssst                    Pssst

---------------------------------------------------------------------------------|
---------------------------------------------------------------------------------|
---------------------------------------------------------------------------------|
--7-8-5-7--5---------5\(3)--7-8-5-7--5----------5\(3)--7-8-5-7--5---------5\(3)--|
---------8---8p5-7h8-3\(1)---------8----8p5-7h8-3\(1)---------8---8p5-7h8-3\(1)--|
---------------------------------------------------------------------------------|

-------------------------------------------------------|
-------------------------------------------------------|
-------------------------------------------------------|
--7-8-5-7--5---------5\(3)--7-8-5-7--5----------5\(3)--|
---------8---8p5-7h8-3\(1)---------8----8p5-7h8-3\(1)--|
-------------------------------------------------------|

LEAD (3:35)
----------------------------|
----------------------------|
----------------------------|
----------------------------|
-5-5-5-5-5-5-5-5-5--5--5-5--|
----------------------------|

----------------------------------------------------------------|
--------------------------------------------------------7h9p7---|
-----------------------------------------------5h7p5h7p5--------|
------------------------------------5h77p5h7p5------------------|
-5-5-5-5-5-5-5-5-5--5--5-5-5h7p5h7p5----------------------------|
----------------------------------------------------------------|

----------------------------------------------------------------|
--------------------------------------------------------7h9p7---|
-----------------------------------------------5h7p5h7p5--------|
------------------------------------5h77p5h7p5------------------|
-5-5-5-5-5-5-5-5-5--5--5-5-5h7p5h7p5----------------------------|
----------------------------------------------------------------|

----------------------------------------------------------------|
--------------------------------------------------------7h9p7---|
-----------------------------------------------5h7p5h7p5--------|
------------------------------------5h77p5h7p5------------------|
-5-5-5-5-5-5-5-5-5--5--5-5-5h7p5h7p5----------------------------|
----------------------------------------------------------------|

----------------------------------------------------------------|
--------------------------------------------------------7h9p7---|
-----------------------------------------------5h7p5h7p5--------|
------------------------------------5h77p5h7p5------------------|
-5-5-5-5-5-5-5-5-5--5--5-5-5h7p5h7p5----------------------------|
----------------------------------------------------------------|

----------------------------|
----------------------------|
----------------------------|
----------------------------|
-5-5-5-5-5-5-5-5-5--5--5-5--|
----------------------------|

(3:49)
--10------10----------------------------------------------------------------|
--13^(15)-13^(15)-10-13p10--10-13p10--110-10-----10-13p10-------------10----|
--------------------------12--------12----12^(14)--------12p10-12^(14)--12--|
----------------------------------------------------------------------------|
----------------------------------------------------------------------------|
----------------------------------------------------------------------------|
(Guitar 1)

 C    B   C  D   D  D  D   D   D   D  D     C    B   C  D   D  D  D   D   D   D  D
------------------------------------------------------------------------------------|
------------------------------------------------------------------------------------|
------------------------------------------------------------------------------------|
------------------------------------------------------------------------------------|
-10----9--10--12--12-12-12--12--12-12-112---10----9--10--12--12-12-12--12--12-12-12-|
--8----7---8--10--10-10-10--10--10-10-110----8----7---8--10--10-10-10--10--10-10-10-|
(Guitar 2)    {...double pick with pm...}               {...double pick with pm...}


----------------------------------------------------------------------------|
--------10-13p10-------10-13p10-------110-13p10-------10-13p10--------------|
-12^(14)--------12^(14)--------12^(14)---------12^(14)--------12p10-12^(14)-|
----------------------------------------------------------------------------|
----------------------------------------------------------------------------|
----------------------------------------------------------------------------|
(Guitar 1)
                                       (3:54)
---------------------------------------------|
-10-13p10--10-13p10--10-13p10----------------|
---------12--------12--------12p10-----------|
----------------------------------12-122~~---|
---------------------------------------------|
---------------------------------------------|
(Guitar 1)

 C    B   C  D   D  D  D   D   D   D  D     C    B   C  D   D  D  D   D   D   D  D
------------------------------------------------------------------------------------|
------------------------------------------------------------------------------------|
------------------------------------------------------------------------------------|
------------------------------------------------------------------------------------|
-10----9--10--12--12-12-12--12--12-12-112---10----9--10--12--12-12-12--12--12-12-12-|
--8----7---8--10--10-10-10--10--10-10-110----8----7---8--10--10-10-10--10--10-10-10-|
(Guitar 2)    {...double pick with pm...}               {...double pick with pm...}


----------------------------------------------------------------------------------|
---------------------------13p10--10h133p10h13p10---------------------------------|
-----------10h12p10--10h12------12---------------12-10h12p10-10-12p10--10-12p10---|
------10h12--------12------------------------------------------------12-------12--|
-10h12----------------------------------------------------------------------------|
----------------------------------------------------------------------------------|
(Guitar 1)
                               (4:00)
------------------------------------|
------------------------------------|
-10^(12)---12-10h12p10-10^(12)------|
--------12---------------------12~--|
------------------------------------|
------------------------------------|
(Guitar 1)

 C    B   C  D   D  D  D   D   D   D  D     C    B   C  D   D  D  D   D   D   D  D
------------------------------------------------------------------------------------|
------------------------------------------------------------------------------------|
------------------------------------------------------------------------------------|
------------------------------------------------------------------------------------|
-10----9--10--12--12-12-12--12--12-12-112---10----9--10--12--12-12-12--12--12-12-12-|
--8----7---8--10--10-10-10--10--10-10-110----8----7---8--10--10-10-10--10--10-10-10-|
(Guitar 2)    {...double pick with pm...}               {...double pick with pm...}

                                                                            (4:04)
-13p10-13p10-13p10------------------------------------------------------------------|
------------------13p10-13p10--10--------------10-------10-------13p10--------------|
-----------------------------12--12-10--12^(14)--12^(14)--12^(14)-----12p10--12p10--|
------------------------------------------------------------------------------------|
------------------------------------------------------------------------------------|
------------------------------------------------------------------------------------|
(Guitar 1)

 C    B   C  D   D  D  D   D   D   D  D     C    B   C  D   D  D  D   D   D   D  D
------------------------------------------------------------------------------------|
------------------------------------------------------------------------------------|
------------------------------------------------------------------------------------|
------------------------------------------------------------------------------------|
-10----9--10--12--12-12-12--12--12-12-112---10----9--10--12--12-12-12--12--12-12-12-|
--8----7---8--10--10-10-10--10--10-10-110----8----7---8--10--10-10-10--10--10-10-10-|
(Guitar 2)    {...double pick with pm...}               {...double pick with pm...}

------------------------------------10----------------------------------------|
-10-13p10--10-13p10--10-13p10---------113p10-----------------------------10---|
---------12--------12--------12^(14)--------10-12p10-12p10-----10-12^(14)-----|
----------------------------------------------------------12p10---------------|
------------------------------------------------------------------------------|
------------------------------------------------------------------------------|
(Guitar 1)
                                                                              (4:09)
-13p10--10--------------------------------------------------------------------------|
------13--13p10-13p10-13p10-13p10---------------------------------------------------|
---------------------------------12p10--12p10-12p10-12p10---------------------------|
---------------------------------------------------------12p10-12p10---12p10-12-12--|
---------------------------------------------------------------------12-------------|
------------------------------------------------------------------------------------|
(Guitar 1)
                        (4:11)
------------------------------|
------------------------------|
---10-10-12^(14'12)-10--------|
-12-------------------12-12---|
------------------------------|
------------------------------|
(Guitar 1)

 C    B   C  D   D  D  D   D   D   D  D     C    B   C  D   D  D  D   D   D   D  D
------------------------------------------------------------------------------------|
------------------------------------------------------------------------------------|
------------------------------------------------------------------------------------|
------------------------------------------------------------------------------------|
-10----9--10--12--12-12-12--12--12-12-112---10----9--10--12--12-12-12--12--12-12-12-|
--8----7---8--10--10-10-10--10--10-10-110----8----7---8--10--10-10-10--10--10-10-10-|
(Guitar 2)    {...double pick with pm...}               {...double pick with pm...}

(4:12)
 D
----------------------------------------------------------|
----------------------------------------------------------|
-7---7/8~~~~/9~~~~/10~~~/11~~~/12~~~~/113~~~~/14~~~~/15---|
----------------------------------------------------------|
-5---5/6~~~~/7~~~~/8~~~~/9~~~~/10~~~~/111~~~~/12~~~~/13---|
----------------------------------------------------------|
                                                    (feedback)
Black Sabbath - "Symptom of the Universe" (Part 2)
From Black Sabbath's Sabotage - July, 1975

Tuning Info: Tune to C#, Andante,  92 beats/min., 4/4 count

Lyrics written here may not align with the tab due to space constraints.  Multiple
guitar parts may not align.

Reprise (4:23)
[m]
----------------------------------------------------------------------|
------5----8-7---------5---8-7----------5---8-7---------5---8-7-------|
-------5------7--7------5-----7--7-------5-----7--7------5-----7--7---|
---------------7---------------7----------------7---------------7-----|
----------------------------------------------------------------------|
-3h5---------------3h5-------------3h5--------------3h5---------------|
(Guitar 1 - 6 string acoustic and Guitar 2 - 12 string acoustic)

----------------------------------------------------------------------|
------5----8-7---------5---8-7----------5---8-7---------5---8-7-------|
-------5------7--7------5-----7--7-------5-----7--7------5-----7--7---|
---------------7---------------7----------------7---------------7-----|
----------------------------------------------------------------------|
-3h5---------------3h5-------------3h5--------------3h5---------------|
(Guitar 1 - 6 string acoustic and Guitar 2 - 12 string acoustic)
 Woman, child of Love's creation, come and step inside my dreams

------------------------------------------------|
-13-12-10----10---------------------------------|
-----------12--12--------12----9----------------|
-----------------12-10h12---7h9--7\5-7--5\3-----|
-------------------------------------------5~---|
------------------------------------------------|
(Guitar 1 - 6 string acoustic)

----------------------------------------------------------------------|
------5----8-7---------5---8-7----------5---8-7---------5---8-7-------|
-------5------7--7------5-----7--7-------5-----7--7------5-----7--7---|
---------------7---------------7----------------7---------------7-----|
----------------------------------------------------------------------|
-3h5---------------3h5-------------3h5--------------3h5---------------|
(Guitar 2 - 12 string acoustic)

----------------------------------------------------------------------|
------5----8-7---------5---8-7----------5---8-7---------5---8-7-------|
-------5------7--7------5-----7--7-------5-----7--7------5-----7--7---|
---------------7---------------7----------------7---------------7-----|
----------------------------------------------------------------------|
-3h5---------------3h5-------------3h5--------------3h5---------------|
(Guitar 1 - 6 string acoustic and Guitar 2 - 12 string acoustic)
 In your eyes I see no sadness.  You were all that loving means

-------------------------------5-8-7-5---------------|
-13-13-12-10--10-13-10-12-10------------8p5----------|
-------------------------------------------7-5-7p5---|
--------------------------------------------------7--|
-----------------------------------------------------|
-----------------------------------------------------|
(Guitar 1 - 6 string acoustic)

----------------------------------------------------------------------|
------5----8-7---------5---8-7----------5---8-7---------5---8-7-------|
-------5------7--7------5-----7--7-------5-----7--7------5-----7--7---|
---------------7---------------7----------------7---------------7-----|
----------------------------------------------------------------------|
-3h5---------------3h5-------------3h5--------------3h5---------------|
(Guitar 2 - 12 string acoustic)

----------------------------------------------------------------------|
------5----8-7---------5---8-7----------5---8-7---------5---8-7-------|
-------5------7--7------5-----7--7-------5-----7--7------5-----7--7---|
---------------7---------------7----------------7---------------7-----|
----------------------------------------------------------------------|
-3h5---------------3h5-------------3h5--------------3h5---------------|
(Guitar 1 - 6 string acoustic and Guitar 2 - 12 string acoustic)
Take my hand and we'll go riding, through the sunshine from above

-------------------------------------------|
-------------------------------------------|
---5-4--4----4-5---4-5---4-5---5-----------|
--7----7---7-----7-----7-----7---7-5\3-----|
----------------------------------------5--|
-------------------------------------------|
(Guitar 1 - 6 string acoustic)

----------------------------------------------------------------------|
------5----8-7---------5---8-7----------5---8-7---------5---8-7-------|
-------5------7--7------5-----7--7-------5-----7--7------5-----7--7---|
---------------7---------------7----------------7---------------7-----|
----------------------------------------------------------------------|
-3h5---------------3h5-------------3h5--------------3h5---------------|
(Guitar 2 - 12 string acoustic)

----------------------------------------------------------------------|
------5----8-7---------5---8-7----------5---8-7---------5---8-7-------|
-------5------7--7------5-----7--7-------5-----7--7------5-----7--7---|
---------------7---------------7----------------7---------------7-----|
----------------------------------------------------------------------|
-3h5---------------3h5-------------3h5--------------3h5---------------|
(Guitar 1 - 6 string acoustic and Guitar 2 - 12 string acoustic)
We'll find happiness together, is the summer skies of love

                                                     (5:25)
---------------------------------------------------------|
----------------------------------------------5----------|
--------4----------------------------4----------7-5\4----|
-----4h7--5p4h5-5-4-5-7-7--------4h7----7-5h7--------7~--|
-5~--------------------------5~--------------------------|
---------------------------------------------------------|
(Guitar 1 - 6 string acoustic)

----------------------------------------------------------------------|
------5----8-7---------5---8-7----------5---8-7---------5---8-7-------|
-------5------7--7------5-----7--7-------5-----7--7------5-----7--7---|
---------------7---------------7----------------7---------------7-----|
----------------------------------------------------------------------|
-3h5---------------3h5-------------3h5--------------3h5---------------|
(Guitar 2 - 12 string acoustic)

                                                                            (5:31)
---------------------------------------------------------------------------------|
----10-12---10-12-12--10----------------------10-12---10-12-10h12p12--13p12p10---|
-12-------12--------12---12-10---10h12pp12--12------12--------------12--------12-|
------------------------------12-------------------------------------------------|
---------------------------------------------------------------------------------|
---------------------------------------------------------------------------------|
(Guitar 1 - 6 string acoustic)
                                                 (5:36)
------------------------------------------------------|
-13-13-12-10------------------------------------------|
-------------12-10-------------------------9---11-----|
------------------12-10---10--------12--10--12----12--|
-----------------------12---12-10---------------------|
---------------------------------12-------------------|
(Guitar 1 - 6 string acoustic)

----------------------------------------------------------------------|
------5----8-7---------5---8-7----------5---8-7---------5---8-7-------|
-------5------7--7------5-----7--7-------5-----7--7------5-----7--7---|
---------------7---------------7----------------7---------------7-----|
----------------------------------------------------------------------|
-3h5---------------3h5-------------3h5--------------3h5---------------|
(Guitar 2 - 12 string acoustic)

                                                                                (5:41)
-(9)/-12-12-12-(9)/-12-12-12-(9)/-12-122-(9)/-12-12----(9)/-12-12-12--12-10-----10----|
---------------------------------------------------------------------------13-12--10~-|
--------------------------------------------------------------------------------------|
--------------------------------------------------------------------------------------|
--------------------------------------------------------------------------------------|
--------------------------------------------------------------------------------------|
(Guitar 1 - 6 string acoustic)

----------------------------------------------------------------------|
------5----8-7---------5---8-7----------5---8-7---------5---8-7-------|
-------5------7--7------5-----7--7-------5-----7--7------5-----7--7---|
---------------7---------------7----------------7---------------7-----|
----------------------------------------------------------------------|
-3h5---------------3h5-------------3h5--------------3h5---------------|
(Guitar 2 - 12 string acoustic)

                                                                      (5:50)
-----------------------------------------------------------------------------|
-10---10---------5-4---------------------------------------------------------|
---12---12-10-9-----5-7-5-4--4-----------------------------------------------|
---------------------------7--7-5-7-5------5-7-5--7-5--5p4-------5\4---------|
-------------------------------------7--5/7----------7----7-7-5h7---5/7-7~---|
-----------------------------------------------------------------------------|
(Guitar 1 - 6 string acoustic)

----------------------------------------------------------------------|
------5----8-7---------5---8-7----------5---8-7---------5---8-7-------|
-------5------7--7------5-----7--7-------5-----7--7------5-----7--7---|
---------------7---------------7----------------7---------------7-----|
----------------------------------------------------------------------|
-3h5---------------3h5-------------3h5--------------3h5---------------|
(Guitar 2 - 12 string acoustic)
                                                                   (6:04)
------------------------------------------------------------------7--5---|
----------------5-3-------------------------5-3------5-3------5-3--7-----|
---(x-x)-5h7-(x)----5-5-----------------5h7-----5--5----5~--5------------|
-7-----------------------7~~-----7~~-------------------------------------|
-------------------------------------------------------------------------|
-------------------------------------------------------------------------|
(Guitar 1 - 6 string acoustic)

----------------------------------------------------------------------|
------5----8-7---------5---8-7----------5---8-7---------5---8-7-------|
-------5------7--7------5-----7--7-------5-----7--7------5-----7--7---|
---------------7---------------7----------------7---------------7-----|
----------------------------------------------------------------------|
-3h5---------------3h5-------------3h5--------------3h5---------------|
(Guitar 2 - 12 string acoustic)

                                                                          (6:14)
-3h5p3\2-3-2--5p3p2-3---3---3----5----55-5------8-5-5--8p5-5-5-8p5---5----------|
---------------------5p3-5p3--3/5--3/5------5-5-------------------8p5-5/8-5-----|
---------------------------------------------------------------------------7-5--|
--------------------------------------------------------------------------------|
--------------------------------------------------------------------------------|
--------------------------------------------------------------------------------|
(Guitar 1 - 6 string acoustic                                             6:15 Coda)

----------------------------------------------------------------------|
------5----8-7---------5---8-7----------5---8-7---------5---8-7-------|
-------5------7--7------5-----7--7-------5-----7--7------5-----7--7---|
---------------7---------------7----------------7---------------7-----|
----------------------------------------------------------------------|
-3h5---------------3h5-------------3h5--------------3h5---------------|
(Guitar 2 - 12 string acoustic)

                                                                      (6:23)
-----5h8----------------------------------------------------5-----7-----8---|
-5-5----8-5-------------------5-5-8p7p55--5-7-8-7h8p7p5--7-7---7-7---7-7----|
-----------5h7--5h7-----5---------------------------------------------------|
-------------------7-5h7-7-7------------------------------------------------|
----------------------------------------------------------------------------|
----------------------------------------------------------------------------|
(Guitar 1 - 6 string acoustic)

-----7-5---------7-(5)/8-8-5---(5)/8--88-5---|
-5h7----7-5--7-7-----------------------------|
---------------------------------------------|
---------------------------------------------|
---------------------------------------------|
---------------------------------------------|
(Guitar 1 - 6 string acoustic)

----------------------------------------------------------------------|
------5----8-7---------5---8-7----------5---8-7---------5---8-7-------|
-------5------7--7------5-----7--7-------5-----7--7------5-----7--7---|
---------------7---------------7----------------7---------------7-----|
----------------------------------------------------------------------|
-3h5---------------3h5-------------3h5--------------3h5---------------|
(Guitar 2 - 12 string acoustic)

2.SNOWBLIND

Tune down 1 1/2 steps

fig A
--------------------------------0--------------2--2--------------|
------------------------------1---1----------3------3------------|
----------------------------0-------0------2----------2----------|
--9-11--12---7---9--------2-----------0--0--------------0--------|
--7--9--10---5---7---0--3----------------------------------------|
-----------------------------------------------------------------|

fig B
------------------------------------|
------------------------------------|
------------------------------------|
--9--9-----9------7--7-------5------|
--7--7--0--7---0--5--5---5/7--------|
------------------------------------|

fig C
-------------------------------------0------|
----------------------------1------3--------|
--------------------------0------2----------|
------------------------2------0------------|
--5h7-5-4-----------0-3---------------------|
----------5--6\-----------------------------|

Fig D
----------0-----------------------------------0------------------0------=
--------0---0-------------0-------0---------0---0--------------0---0----=
------0-------0---------0-------0---------0-------0----------0-------0--=
----9-----------9-----7-------4---------5-----------5------4------------=
--7-----------------5-------4---------3------------------2--------------=
------------------------------------------------------------------------=


Solo:
----------------------------12------------------------------------|
--12--15--15b-15b-15b-15b-------15---12---------------------------|
------------------------------------------15--14--12--------------|
------------------------------------------------------\7--5-------|
------------------------------------------------------------------|
------------------------------------------------------------------|

------------------------------------------------------------------|
------------------------------------------------------------------|
---------------------------------------------5--------------------|
-------5--7--7b-7b-7b--7--5--7----------5------7---------5--7-----|
--5h7---------------------------7--5h7-----7-------5h7------------|
------------------------------------------------------------------|


------------------------------------------------------------------|
------------------------------------------------------------------|
------------------------------------------------------------------|
--7b-7b--7--5--7b--7--5h7-----------5------5---------5--7---------|
---------------------------7--5h7------7------7--5h7--------------|
------------------------------------------------------------------|

---------------------------------------------------------15b--15b--|
------------15b--15b--15b--15b--12---------------------------------|
-------------------------------------15--12------------------------|
--7b--7--5-----------------------------------15--14--12------------|
-------------------------------------------------------------------|
-------------------------------------------------------------------|

--12-------12------------------------------------------|
------15b------15--12----------------------------------|
------------------------15--14--12---------------------|
-------------------------------------14\---------------|
-------------------------------------------------------|
-------------------------------------------------------|

fig E
-----------------------------------------------------------|
-----------------------------------------------------------|
-----------------------------------------------------------|
-----------------------------------------------------------|
---------10--10----------10--10----------10--10--12-12-12--|
--12--12---------12---12---------12---12---------10-10-10--|

Outro Solo:
|-12--12--12-----12---12-----12----12151215--12151215-12--12--12---|
|-15^-15^-15^^^-----------15^^^(15)-------------------15^-15^------|
|------------------------------------------------------------------|
|------------------------------------------------------------------|
|------------------------------------------------------------------|
|------------------------------------------------------------------|


|-(12)---12-----12151215--121512-------------------------------|
|----15^^^^(15)-------------------12--12--12--12--12--12--12---|
|---------------------------------14^-14^-14^-14^-14^-14^-14^--|
|--------------------------------------------------------------|
|--------------------------------------------------------------|
|--------------------------------------------------------------|

|-x\-----------------------------------------------------------|
|------12--15--17--17-------17----17-----17-----------15--12---|
|---14-14^-17^-19^-19^^^(20)19^---19^----19^--19^-19^-17^-14^--|
|--------------------------------------------------------------|
|--------------------------------------------------------------|
|--------------------------------------------------------------|

|-------------------------------------|-----------------12-|-------------|
|-------------------------------------|--------------------|-15--15^-----|
|-14-14--121412----14^--14-12---------|-1412----14^-14^----|-------------|
|---------------14------------14^(14)-|-----1412-----------|-------------|
|-------------------------------------|--------------------|-------------|
|-------------------------------------|--------------------|-------------|

|-12----------------|----12---12--------|------------------|
|----15-12----------|----12---12-12--12-|------------------|
|----------15-14-12-|-14^---14^--14^-14^|------------------|
|-------------------|-------------------|------------------|
|-------------------|-------------------|------------------|
|-------------------|-------------------|------------------|

|---------------------------|------------------------------|
|----12-15----12^-15-----12-|-15-----12-15-----12-15-------|
|-14^------14--------14^----|----14^-------14^-------14^---|
|---------------------------|------------------------------|
|---------------------------|------------------------------|and so on...
|---------------------------|------------------------------|

|--------------121412--------------------12----------------|
|-121512151215--------151215121512151215----1512151215-----|
|----------------------------------------------------------|
|----------------------------------------------------------|
|----------------------------------------------------------|
|----------------------------------------------------------|

|-------------||-121512151215--------------121512----------|
|-121512151215||--------------121512151215--------121512---|
|-------------||-------------------------------------------|
|-------------||-------------------------------------------|
|-------------||-------------------------------------------|and so on...
|-------------||-------------------------------------------|

|-15-121512----12-12---12--|---12----12--|-12-12-12-12--15-15-15--|
|-----------15---------15^-|---15^---15^-|-15^15^15^15^-18^18^18^-|
|--------------------------|-------------|------------------------|
|--------------------------|-------------|------------------------|
|--------------------------|-------------|------------------------|
|--------------------------|-------------|------------------------|

|----15-121512------------------------|--------------------|
|-15^----------15-121412--------------|-----12-15-15^------|
|------------------------14-121412----|-14^----------------|
|----------------------------------14-|--------------------|
|-------------------------------------|--------------------|
|-------------------------------------|--------------------|

|-12-------|------------------------------12---------------|
|----15-12-|--12------15------12-----15---15^--------------|
|----------|--14^-----17^-----14^----17^-------------------|
|----------|-----------------------------------------------|
|----------|-----------------------------------------------|
|----------|-----------------------------------------------|

3.BLACK SABBATH

|------------------------|-------------|

|------------------------|-------------|

|------------------------|-------------|
|--0--5------------------|---0--5------|
|-------45454545454545/-|---------4----|
|--3---------------------|---3---------|

Solo:
|----------------------|------------------------------------------3--|
|----------------------|-----------------------3-----3~~~---3-----3--|
|----------------------|------------3~~~-------5^-----------5^-------|
|-5p3---5-----(5)^-5-5-|-3~~----3h5----------------------------------|
|-----5----------------|---------------------------------------------|
|----------------------|---------------------------------------------|

|-----------------|-------15----15--x--|----------------18^---18^---|
|--3--6---8--10---|-----15---18^-------|-18^--18^----15-------------|
|--5^-8^-10^-12^--|--17^---------------|----------------------------|
|-----------------|--------------------|----------------------------|
|-----------------|--------------------|----------------------------|
|-----------------|--------------------|----------------------------|

|--15-18p15--18p15---|-18^-15h18p15------15-15-----15-----------|
|----------18-----18-|-------------18-18-------18^--------------|
|--------------------|------------------------------------------|
|--------------------|------------------------------------------|
|--------------------|------------------------------------------|
|--------------------|------------------------------------------|

|--15------------15-----15-----15-----15-----15-----15-----15-------|
|-----18-15----15-----15-----15-----15-----15-----15-----15--15~~---|
|-----------17^----17^----17^----17^----17^----17^----17^-----------|
|-------------------------------------------------------------------|
|-------------------------------------------------------------------|
|-------------------------------------------------------------------|

|----------15---------|----------------18^^^18p15---18^----15h18p15-----|
|--------15--------15-|-18^^----18^^--------------------------------18--|
|--14-17^----17-18----|-----15------15-----------(17)-------------------|
|---------------------|-------------------------------------------------|
|---------------------|-------------------------------------------------|
|---------------------|-------------------------------------------------|


|-15h18p15--18p15--15h18p15h18-15h18p15h18-15h18p15h18-15h18p15h18-18^--|
|---------18-----18-----------------------------------------------------|
|-----------------------------------------------------------------------|
|-----------------------------------------------------------------------|
|-----------------------------------------------------------------------|
|-----------------------------------------------------------------------|


|-18^^^--18p15---------15-15--------------|------15-----------------------|
|-------------18-18-18^------18-15--------|----15--18p15------------------|
|---------------------------------17-15^--|-17^---------17-15^------------|
|-----------------------------------------|---------------------17p15h17--|
|-----------------------------------------|-------------------------------|
|-----------------------------------------|-------------------------------|


|---------------15-----15-----15----------------------|
|-------------15-----15-----15---18^-18^-18^----------|
|-------15-17^----17^----17^--------------------------|
|--15h17----------------------------------------------|
|-----------------------------------------------------|
|-----------------------------------------------------|

Ending: Use a crybaby


|-3----------------------------3---------------------------|
|-3----------------------------3---------------------------|
|-0--------------3-------------0---------------3-----------|
|-0--------------3-------------0---------------3-----------|
|----------------1-----------------------------1-----------|
|-3--------------1-------------3---------------1-----------|

|----------------------------------------------------------|
|----------------------------------------------------------|
|-5-----5-5-5-5--5-5-5--3---3-3-3-3---3-3-3---5------------|
|-5-----5-5-5-5--5-5-5--3---3-3-3-3---3-3-3---5------------|
|-5-----5-5-5-5--5-5-5--1---1-1-1-1---1-1-1---5------------|
|-3-----3-3-3-3--3-3-3--1---1-1-1-1---1-1-1---3------------|

4.FAIRIES WEAR BOOTS

|----------------------------------------------------------------|
|----------------------------------------------------------------|
|----------3-----------3-------------------3------------3--------|
|------3-----5-5----3----5--3h5----------3---5-5------3---5--3h5-|
|----5------------5--------------------5------------5------------|
|--3-------------------------------3-----------------------------|

|------------------------------|
|------------------------------|
|---------3---------3-----3----|
|------3----5-5---3---5-----5--|
|----5----------5--------------|
|--3---------------------------|

|-----------------------------------------------------------------------------|
|-----------------------------------------------------------------------------|
|----5-5p4---4---------------5-5p4---4-------------------5p4---4--------------|
|-/7-------7---7-5-5h7-5h7---------7---7-5-5h7-5h7-----5-----7---7-5-5h7-5h7--|
|--------------------------------------------------5h7------------------------|
|-----------------------------------------------------------------------------|

|------------------------------|
|------------------------------|
|-5p4---5p4---5p4---5p4---4----|
|-----7-----7-----7-----7---7--|
|------------------------------|
|------------------------------|

         (slide up then down)
|5/7--10-10///\\------7-5-5/7----------------------------|
|--------------------------------------------------------|
|2/4---7--7///\\------4-2-2/4----------------------------|
|--------------------------------------------------------|
|--------------------------------------------------------|
|--------------------------------------------------------|

|--12=12\10--7=7\5----5/7---5/7-10-10/12=12\u--7-5-5/7---7-7/10-12-12/14-10\u-|
|---------------------------*---------------------------*---------------------|
|------9 \7----4\2--2=2/4---2/4--7--7 /9^10\u--4-2-2/4---4-4 /7--9--9/11--7\u-|
|-----------------------------------------------------------------------------|
|-----------------------------------------------------------------------------|
|-----------------------------------------------------------------------------|

|-------------------------------------|
|-------------------------------------|
|-------9-7\----------9-7\------------|
|-------9-7\---9-7\---9-7\---9-7\-----|
|-------7-5\---9-7\---7-5\---9-7\-----|
|--------------7-5\----------7-5\-----|

Solo:
|---------------------------9-----------------12^-12^---12p9------9-----------|
|-------------------------9---12-12^----12p9-----------------9h12---12-9-9----|
|--------------------9-11^----------------------------------------------------|
|---------------9-11----------------------------------------------------------|
|---9-10-11-------------------------------------------------------------------|
|---7--8--9-------------------------------------------------------------------|

|-------------------9-----------------------------9---------------------------|
|-----------------9--12-------------------------9---12-------------9----------|
|--11-11---(11^13)------(11^13)-(11^13)-(11^12)--------(11^**)-9------12p11p9-|
|-----------------------------------------------------------------------------|
|-----------------------------------------------------------------------------|
|-----------------------------------------------------------------------------|

|--------------------9--------------------|
|------------------9---12--9--------------|
|-11p10p9----11^(**)---------(11^12)--9---|
|-----------------------------------------|
|-----------------------------------------|
|-----------------------------------------|

Verse groove:
|--------------------------------------|
|--------------------------------------|
|--------------------------------------|
|---------------5----------------------|
|--5-5--8-8--5--3-----5-5--8-8--5--3---|
|--3-3--6-6--3--------3-3--6-6--3--1---|

Pre-solo:
|--------------------------|
|--------------------------|
|--------------------------|
|-3h5-(3)h5-------3--------|
|-------------3-5---5------|
|---------------------3^-^-|

|-------------------------------------------------------------------|
|-3--/-6--/--8-/15\(1)--3--/-6--/--8-/15\(1)--3--/-6--/--8--/-10----|
|-5^-/-8^-/-10^/--------5^-/-8^-/-10^/--------5^-/-8^-/-10^-/-12^---|
|-------------------------------------------------------------------|
|-------------------------------------------------------------------|
|-------------------------------------------------------------------|

|--------15------------------------18^-18^-p15-18p15---18p15-------------|
|-----15----18^-18^-18^-18^-^---15------------------18-------18-18p15----|
|--17-----------------------------------------------------------------17-|
|------------------------------------------------------------------------|
|------------------------------------------------------------------------|
|------------------------------------------------------------------------|

|--------15--------------------15---------------|
|-----15----18p15-----------15----18p15---------|
|--17^------------17-15-17^-------------17-15---|
|-----------------------------------------------|
|-----------------------------------------------|
|-----------------------------------------------|

|---------------------3-------------3---------------3--------------3-------------|
|---3---------------3---6p3-----------6p3---------3---6p3--------3---6p3---------|
|---3--------3---5^---------5-3--5^-------5-3--5^---------5-3-5^---------5-5p3---|
|-5----5-3-5-------------------------------------------------------------------5-|
|--------------------------------------------------------------------------------|
|--------------------------------------------------------------------------------|

|--------------------------|
|--------------------------|
|--------------------------|
|-3h5-(3)h5-------3--------|
|-------------3-5---5------|
|---------------------3^-^-|

|--5h6---5-----5h6---5----------|
|------8---6h8-----8---6h8------|
|-------------------------------|
|-------------------------------|
|-------------------------------|
|-------------------------------|

5.WAR PIGS

solo #1 (3:38)
----------------------------|--------------------------------------|
----------------------------|--------------------------------------|
----------------------------|--------------------------------------|
----------------------------|--------------------------------------|
-11h12-12-11-11-7-7-5-5h7-7-|-7p5-5h7-7/11-11h12-12p11-11h12-12h14-|
----------------------------|--------------------------------------|

-------------------------------------------|-----12------|
----------------------------------------12-|-----12-(x6)-|
----------------------------------------12-|-14b---------|
-------12h14-------12h14-14-------12h14----|-------------|
-12h14-------12h14----------12h14----------|-------------|
-------------------------------------------|-------------|

--------------|-------------------|-15b-15b-15b-15b-12h15p12----12-----|
15b-15b-12-15-|--12h15p12----(x4)-|--------------------------15----15b-|
--------------|-----------14------|------------------------------------|
--------------|-------------------|------------------------------------|
--------------|-------------------|------------------------------------|
--------------|-------------------|------------------------------------|

-----------------------------------------------------------------------------|
-12h15p12----(x4)-----------12h15p12----(x2)-12h14-14b-12----12-14-14b-12----|
----------14------12h14-14b----------14-------------------14--------------14-|
-----------------------------------------------------------------------------|
-----------------------------------------------------------------------------|
-----------------------------------------------------------------------------|

-------------------------|--------------------------------|-------------------|
-------------------------|--------------------------------|-------------------|
-------------------------|--------------------------------|-------------------|
-------12----------------|---16b-16b-16b-16b-16b-12h14-14-|-16b-12h14p12-(x4)-|
-12h14----12-10h12-10----|--------------------------------|-------------------|
----------------------12-|-0------------------------------|-------------------|

----------|------------------------------|------------------|-------------------|
----------|------------------------------|------------------|-------------------|
----------|------------------------------|------------------|-------------------|
-16-14-16-|-16b-16b-16b-16b-16b-12h14-14-|-------12h14-(x3)-|-16b-12h14p12-(x4)-|
----------|------------------------------|-12h14------------|-------------------|
----------|------------------------------|------------------|-------------------|

----------------------------|----------|----------|
----------------------------|----------|----------|
----------------------------|----------|----------|
----------------------------|----------|----------|
-11h12-12-11-11-7-7-5-5h7-7-|-5h7-(x4)-|-5h7-(x4)-|
----------------------------|----------|----------|

solo #2 (7:13)
--------------------------------|-------|-------------------|----------------------|
--------------------------------|-------|-------------------|----------------------|
--------------------------------|-------|-------------------|----------------------|
-12h14-14-16b-16b-16b-16b-12-14-|-12-14-|-16b-12h14p12-(x4)-|-16b-(x5)-12----12-14-|
--------------------------------|-------|-------------------|-------------14-------|
--------------------------------|-------|-------------------|----------------------|

----------|-------------------|----------------|------------------|
----------|-------------------|----------------|------------------|
----------|-------------------|----------------|------------------|
-14-12-14-|-16b-12h14p12-(x4)-|-16b-(x3)-12-14-|-14-12------------|
----------|-------------------|----------------|-------14-12-10-9-|
----------|-------------------|----------------|------------------|

---------------------------|-------------------------------|
---------------------------|-------------------------------|
---------------------------|-------------------------------|
---------------------------|-------------------------------|
-9h10p9----(x2)----9-10-12-|-9h10p9----(x4)-10h12p10-13-10-|
--------12-----------------|--------12---------------------|

6.THE WIZARD

e---------------------------------------------|
  B------------5--5---------------------------|
  G--2--5--2---5--5--------0------------------|
  D--2--5--2---5--5---0H2-----2P0-------------|
  A--0--3--0---3--3----------------3--0-------|
  E--------------------------------------3----|
=0D
  INTRO SOLO  :42
  e------------------------------------------|
  B------------------------------------------|
  G----------------------------------0--0H2--|
  D------------------------------0H2---------|
  A--3H5--3H5P3H5--3H5--3H5P3H5--------------|
  E------------------------------------------|
=0D
  e------------------------------------------|
  B---------------1---------------------3--5-|
  G--2P0-----0H2----2--2P0----0H2--7B9-------|
  D-------2-----------------2----------------|
  A------------------------------------------|
  E------------------------------------------|
=0D
  e-----------------------------------------------------|
  B-----------------------------------------------------|
  G--7B9--7P5--7P5----------------------5---------------|
  D-----------------7--5H7------5--5H7-----7P5----5H7---|
  A-------------------------5H7-----------------7-------|
  E-----------------------------------------------------|
=0D
  STARTS AT 1:07
  e--5--5---6--5---|
  B--5--5---6--5---|
  G--6--6---7--6---|
  D--7--7---8--7---|
  A--7--7---8--7---|
  E--5--5---6--5---|
=0D

  FILL 1  1:07
  e-------|
  B-------|
  G-------|
  D--5T---|
  A-------|
  E-------|
=0D
  FILL 2  1:20
  e----------|
  B----------|
  G----------|
  D--7P5-----|
  A-------7--|
  E----------|
=0D

  STARTS AT 1:36
  e-----------------|
  B-----------------|
  G-----------------|
  D--10--9---7--7---|
  A--10--9---7--7---|
  E--8---7---5--5---|

7.N.I.B.

Riff:1(main riff)
Eb|------------------------------------------------------------------|
Bb|------------------------------------------------------------------|
Gb|---9--9--7--9---12--11----9--9--7--9------------------------------|
Db|---9--9--7--9---12--11----9--9--7--9------------------------------|
Ab|---7--7--5--7---10--9-----7--7--5--7------------------------------|
Eb|------------------------------------------------------------------|

riff:2a                        riff:2b
Eb|--12---12---------          --------------------------------------|
Bb|--15B--15B--------          --------------------------------------|
Gb|------------------          --------------------------------------|
Db|------------------          ----------5(let ring)-----------------|
Ab|------------------          -------5h7----------------------------|
Eb|------------------          ----5h7-------------------------------|

riff:3
Eb|-------------------------------------------------------------------|
Bb|-------------------------------------------------------------------|
Gb|--9------9-7------7-5------5-4------4-9------9-7------7-5------5-4-|
Db|--9------9-7------7-5------5-4------4-9------9-7------7-5------5-4-|
Ab|--7------7-5------5-3------3-2------2-7------7-5------5-3------3-2-|
Eb|-------------------------------------------------------------------|


Eb|------------------------------------------------------------------|
Bb|------------------------------------------------------------------|
Gb|-4\5-----5/4------4\5------5/4------------------------------------|
Db|-4\5-----5/4------4\5------5/4------------------------------------|
Ab|-2\3-----3/2------2\3------3/2------------------------------------|
Eb|------------------------------------------------------------------|

riff:4
Eb|------------------------------------------------------------------|
Bb|------------------------------------------------------------------|
Gb|------------------------------------------------------------------|
Db|-------5----7--7p5------------------------------------------------|
Ab|--5h7---------------7--7------------------------------------------|
Eb|------------------------------------------------------------------|

riff:5
Eb|--7-----7-----7-----|
Bb|--10B---10B---10B---|
Gb|--------------------|
Db|--------------------|
Ab|--------------------|
Eb|--------------------|

8.SWEET LEAF

Tune down 1 1/2 steps

|-------------------------------|-------------------------------------------|
|-------------------------------|-------------------------------------------|
|-------------------------------|-------------------------------------------|
|-------x-x---7\6-5-------5/7---|----------x-x----7\6-5-------5/7-----------|
|-7-7---------5\4-3---(0)-3/5---|----7-7----------5\4-3---(0)-3/5-----------|
|-5-5---------------------------|----5-5------------------------------------|
|                               |
|-------------------------------|---------------------------------|
|-------------------------------|---------------------------------|
|-------------7\6-5-------5-7---|-----------------7\6-5-------5-7-|
|-5h7-7\------------------------|--5h7-7\-------------------------|
|-------------------------------|---------------------------------|
|-------------------------------|---------------------------------|

|-------------------------------|-------------------------------|
|-------------------------------|-------------------------------|
|-------------------------------|-------------------------------|
|-------------------------------|-------------------------------|
|-7---(7)-\----5----10---14\--7-|-7---(7)-\----5---10--14\--7---|
|-5---(5)-\----3-----8---12\--5-|-5---(5)-\----3----8--12\--5---|
|                               |
|-------------------------------|-------------------------------|
|-------------------------------|-------------------------------|
|--------------------5---7^p5---|-------------------5--7^p5-----|
|5/7-----------5--------------7-|5/7-----------5------------7---|
|-------------------------------|-------------------------------|
|-------------------------------|-------------------------------|


|----------------------------------------------------------|
|----------------------------------------------------------|
|----------------------------------------------------------|
|--4-------4-4-4-4/6----6-6--------------------------------|
|--2-------2-2-2-2/4----4-4--------------------------------|
|----------------------------------------------------------|


|----------------------------------------------------------|
|--6-7-6h7p6---6-7-6h7p6---6-7-6h7p6---6-7-6h7p6---7-7/9---|
|------------6-----------6-----------6-----------6---------|
|----------------------------------------------------------|
|----------------------------------------------------------|
|----------------------------------------------------------|

Solo:
|-------9~---9---------------|----------9----------9--------|
|-12^----------12-9----------|-------------12-12^-----------|
|--------------------11p9----|-9-11^------------------------|
|-------------------------11-|------------------------------|
|----------------------------|------------------------------|
|----------------------------|------------------------------|


|-------9~---9---------------|---------------------------------|
|-12^----------12-9----------|---------------------------------|
|--------------------11p9----|-11p9----------------------------|
|-------------------------11-|------11--11p9-------------------|
|----------------------------|---------------11----------------|
|----------------------------|-------------------12--9---------|


|----------------------------------------------------------|
|----------------------------------------------------------|
|----------------------------------------------------------|
|-6-------------------6------------------------------------|
|-4--7-\-6--5---------4--7-\-6--5--------------------------|
|----5-\-4--3------------5-\-4--3--------------------------|

9.NEVER SAY DIE

A   B   D   A      A   B   D   A      A   B   D   A     A    B   D   A
-------------------------------------------------------------------------------|
-------------------------------------------------------------------------------|
--2---4---7---2------2---4---7---2------2---4---7---2------2---4---7---2-------|
--2---4---7---2------2---4---7---2------2---4---7---2------2---4---7---2-------|
--0---2---5---0-3p0--0---2---5---0-3p0--0---2---5---0-3p0--0---2---5---0-3p0---|
-------------------3------------------3------------------3------------------3--|

  A   B   D   A      A   B   D   A      A   B   D   A     A    B   D   A
-------------------------------------------------------------------------------|
-------------------------------------------------------------------------------|
--2---4---7---2------2---4---7---2------2---4---7---2------2---4---7---2-------|
--2---4---7---2------2---4---7---2------2---4---7---2------2---4---7---2-------|
--0---2---5---0-3p0--0---2---5---0-3p0--0---2---5---0-3p0--0---2---5---0-3p0---|
-------------------3------------------3------------------3------------------3--|
People going nowhere, taken for a ride. Looking for the answers that they have inside

  A   B   D   A      A   B   D   A      A   B   D   A     A    B   D   A
-------------------------------------------------------------------------------|
-------------------------------------------------------------------------------|
--2---4---7---2------2---4---7---2------2---4---7---2------2---4---7---2-------|
--2---4---7---2------2---4---7---2------2---4---7---2------2---4---7---2-------|
--0---2---5---0-3p0--0---2---5---0-3p0--0---2---5---0-3p0--0---2---5---0-3p0---|
-------------------3------------------3------------------3------------------3--|
Searching for a reason, looking for a ride. No one is innocent, partners in crime.

CHOURSE
 F                      F                     F
--------------------------------------------------------------------------------|
--------------------------------------------------------------------------------|
-5----------------------5---------------------5---------------------------------|
-3----------------------3---------------------3---------------------------------|
-3--3-3--2-2--0-0-------3--3-3--2-2--3-3--5/7-3--3-3--2-2--0-0------------------|
-1-----------------3-3--1---------------------1----------------3-1--------------|
 Don't they have to worry?  Don't you ever wonder why?  It's the part of me that
                                                            kills you.

-----------------------------------------------------------------------------|
--------------------3---------5----------7-----------9----------10-----------|
--------------------5^(7'5)---7^(9'7)----9^(11'9)---11^(13'11)--12^(14'12)---|
-----------------------------------------------------------------------------|
----0---2---3---5------------------------------------------------------------|
-3---------------------------------------------------------------------------|
(Guitar 1)
Oh, don't you ever, don't ever say die.  Never, never, never say die

-----------------------12------12------12------------|
-12----------15p12--12-14^(16)-14^(16)-14^(16)-------|
-14^(16'14)-------14---------------------------------|
-----------------------------------------------------|  {Yea, it doesn't line
-----------------------------------------------------|  up...sorry!}
-----------------------------------------------------|
(Guitar 1)
                again!

  A   B   D   A      A   B   D   A
-------------------------------------------|
-------------------------------------------|
--2---4---7---2------2---4---7---2---------|
--2---4---7---2------2---4---7---2---------|
--0---2---5---0-3p0--0---2---5---0-3p0-----|
-------------------3------------------3----|

  A   B   D   A      A   B   D   A      A   B   D   A     A    B   D   A
-------------------------------------------------------------------------------|
-------------------------------------------------------------------------------|
--2---4---7---2------2---4---7---2------2---4---7---2------2---4---7---2-------|
--2---4---7---2------2---4---7---2------2---4---7---2------2---4---7---2-------|
--0---2---5---0-3p0--0---2---5---0-3p0--0---2---5---0-3p0--0---2---5---0-3p0---|
-------------------3------------------3------------------3------------------3--|
Someday satisfaction. Madness on the rise. Truth is on the door step.  Welcome
                                                                     in the lies
  A   B   D   A      A   B   D   A      A   B   D   A     A    B   D   A
-------------------------------------------------------------------------------|
-------------------------------------------------------------------------------|
--2---4---7---2------2---4---7---2------2---4---7---2------2---4---7---2-------|
--2---4---7---2------2---4---7---2------2---4---7---2------2---4---7---2-------|
--0---2---5---0-3p0--0---2---5---0-3p0--0---2---5---0-3p0--0---2---5---0-3p0---|
-------------------3------------------3------------------3------------------3--|
All dressed up in sorrow.  Got no place to go. Hold tight, do it right, taking it
                                                                        slow.
CHOURSE

 F                      F                     F
--------------------------------------------------------------------------------|
--------------------------------------------------------------------------------|
-5----------------------5---------------------5---------------------------------|
-3----------------------3---------------------3---------------------------------|
-3--3-3--2-2--0-0-------3--3-3--2-2--3-3--5/7-3--3-3--2-2--0-0------------------|
-1-----------------3-3--1---------------------1----------------3-1--------------|
 Don't they ever have to worry?  Don't you ever wonder why?  It's a part of me that
                                                            kills you.
-----------------------------------------------------------------------------|
--------------------3---------5----------7-----------9----------10-----------|
--------------------5^(7'5)---7^(9'7)----9^(11'9)---11^(13'11)--12^(14'12)---|
-----------------------------------------------------------------------------|
----0---2---3---5------------------------------------------------------------|
-3---------------------------------------------------------------------------|
(Guitar 1)
Oh, don't you ever, don't ever say die.  Never, never, never say die

-----------------------12------12------12------------|
-12----------15p12--12-14^(16)-14^(16)-14^(16)-------|
-14^(16'14)-------14---------------------------------|
-----------------------------------------------------|
-----------------------------------------------------|
-----------------------------------------------------|
(Guitar 1)
                again!

  A   B   D   A      A   B   D   A
-------------------------------------------|
-------------------------------------------|
--2---4---7---2------2---4---7---2---------|
--2---4---7---2------2---4---7---2---------|
--0---2---5---0-3p0--0---2---5---0-3p0-----|
-------------------3------------------3----|

---------------------------------------------------------------|
-12-----12-----10-----10-----12-----12-----10-----10-----------|
---12-----12-----10-----10-----12-----12-----10-----10---------|
-----12-----12-----10-----10-----12-----12-----10-----10-------|
---------------------------------------------------------------|
---------------------------------------------------------------|
Don't you  ever say die.  Don't you ever say die.

                                        E E E E  E E E  E E E E  E E E
-------------------------------------------------------------------------|
-----5------5---7------5-----5----7--------------------------------------|
----*--5--5----*--7---*--5--5----*--7---9-9-9-9--9-9-9--9-9-9-9--9-9-9---|
---5----5-----7------5----5-----7----7--9-9-9-9--9-9-9--9-9-9-9--9-9-9---|
-0-----------5------0----------5--------7-7-7-7--7-7-7--7-7-7-7--7-7-7---|
-------------------------------------------------------------------------|
Never say die

  A   B   D   A      A   B   D   A      A   B   D   A     A    B   D   A
-------------------------------------------------------------------------------|
-------------------------------------------------------------------------------|
--2---4---7---2------2---4---7---2------2---4---7---2------2---4---7---2-------|
--2---4---7---2------2---4---7---2------2---4---7---2------2---4---7---2-------|
--0---2---5---0-3p0--0---2---5---0-3p0--0---2---5---0-3p0--0---2---5---0-3p0---|
-------------------3------------------3------------------3------------------3--|
Painting silver lining, writing's on the wall. Children get together. You can
                                                                save us all.

  A   B   D   A      A   B   D   A      A   B   D   A     A    B   D   A
-------------------------------------------------------------------------------|
-------------------------------------------------------------------------------|
--2---4---7---2------2---4---7---2------2---4---7---2------2---4---7---2-------|
--2---4---7---2------2---4---7---2------2---4---7---2------2---4---7---2-------|
--0---2---5---0-3p0--0---2---5---0-3p0--0---2---5---0-3p0--0---2---5---0-3p0---|
-------------------3------------------3------------------3------------------3--|
Future's 'round the corner, showing us in time. Slow down, turn around, everything's
                                                                   fine!
CHOURSE

 F                      F                     F
--------------------------------------------------------------------------------|
--------------------------------------------------------------------------------|
-5----------------------5---------------------5---------------------------------|
-3----------------------3---------------------3---------------------------------|
-3--3-3--2-2--0-0-------3--3-3--2-2--3-3--5/7-3--3-3--2-2--0-0------------------|
-1-----------------3-3--1---------------------1----------------3-1--------------|
 There's no need to have a reason. There's no need to wonder why?  It's a part of me that
                                                            kills you.

-----------------------------------------------------------------------------|
--------------------3---------5----------7-----------9----------10-----------|
--------------------5^(7'5)---7^(9'7)----9^(11'9)---11^(13'11)--12^(14'12)---|
-----------------------------------------------------------------------------|
----0---2---3---5------------------------------------------------------------|
-3---------------------------------------------------------------------------|
(Guitar 1)
Oh, don't you ever, don't ever say die.  Never, never, never say die

-----------------------12------12------12------------|
-12----------15p12--12-14^(16)-14^(16)-14^(16)-------|
-14^(16'14)-------14---------------------------------|
-----------------------------------------------------|
-----------------------------------------------------|
-----------------------------------------------------|
(Guitar 1)
                again!
LEAD

----------------------------------------------------------------|
-5h8p5-5h8---------5-7p5-----5-7p5-----5-7p5--------------------|
------7---5---7^(9)-----7^(9)-----7^(9)-----5-------------------|
-----------7~--------------------------------7~----7~----7~-----|
------------------------------------------------5/7---5/7-------|
----------------------------------------------------------------|
(Guitar 1)

-------------------------------------|
-------------------------------------|
-------------------------------------|
-9^(11)-9^(11)-9^(11)-9^(11'9)-7-7~--|
--------------------------------9----|
-------------------------------------|
(Guitar 1)

  A   B   D   A      A   B   D   A      A   B   D   A     A    B   D   A
-------------------------------------------------------------------------------|
-------------------------------------------------------------------------------|
--2---4---7---2------2---4---7---2------2---4---7---2------2---4---7---2-------|
--2---4---7---2------2---4---7---2------2---4---7---2------2---4---7---2-------|
--0---2---5---0-3p0--0---2---5---0-3p0--0---2---5---0-3p0--0---2---5---0-3p0---|
-------------------3------------------3------------------3------------------3--|
(Guitar 2)

------------------------------------8-10p8h10p8--------------------------------|
-5----5-7p5-5----5-7p5-5-----5-7p5-------------10p8h10p8h10p8------------------|
-7^(9)------7^(9)------7^(9)---------------------------------7h9p7\5h7p5h7p5---|
-------------------------------------------------------------------------------|
-------------------------------------------------------------------------------|
-------------------------------------------------------------------------------|
(Guitar 1)

-----------------------|
-----------------------|
-----------------------|
-7~(/9\5)--------------|
-----------------------|
-----------------------|
(Guitar 1)

 A   B   D   A      A   B   D   A      A   B   D   A     A    B   D   A
-------------------------------------------------------------------------------|
-------------------------------------------------------------------------------|
--2---4---7---2------2---4---7---2------2---4---7---2------2---4---7---2-------|
--2---4---7---2------2---4---7---2------2---4---7---2------2---4---7---2-------|
--0---2---5---0-3p0--0---2---5---0-3p0--0---2---5---0-3p0--0---2---5---0-3p0---|
-------------------3------------------3------------------3------------------3--|
(Guitar 2)

-----------------------------------------------------------------------------|
-------------------5-8p5h8---------------------------------------------------|
----------5h7-7p5h7-------7p5h7p5-5------------------------------------------|
-------5h7-----------------------7--7p5-7p5----------------------------------|
--3h5-7------------------------------------7p5\3-5p3-5p3---------------------|
-5----------------------------------------------5---5---5--------------------|

 A   B   D   A      A   B   D   A      A   B   D   A     A    B   D   A
-------------------------------------------------------------------------------|
-------------------------------------------------------------------------------|
--2---4---7---2------2---4---7---2------2---4---7---2------2---4---7---2-------|
--2---4---7---2------2---4---7---2------2---4---7---2------2---4---7---2-------|
--0---2---5---0-3p0--0---2---5---0-3p0--0---2---5---0-3p0--0---2---5---0-3p0---|
-------------------3------------------3------------------3------------------3--|
(Guitar 2)
  A A (G)  A A (G)  A A (G)  A
------------------------------------------------------|
------------------------------------------------------|
--6-6\(4)--6-6\(4)--6-6\(4)--6------------------------|
--7-7\(5)--7-7\(5)--7-7\(5)--7------------------------|
--7-7\(5)--7-7\(5)--7-7\(5)--7-{Let ring)-------------|
--5-5\(3)--5-5\(3)--5-5\(3)--5------------------------|
                               Never say Die.

10.SABBATH,BLOODY SABBATH

Don't Know

11.IRONMAN

Intro: bend behind nut on open E string.
|-------------------|
|-------------------|
|-----/|------------|
|i2-/--\----(X 3)---| i = index finger
|---/----\----------|
|t0^------\---------| t = thumb

|-------------------------------------------------------------|
|-------------------------------------------------------------|
|-------------------------------------------------------------|
|-------------------------------------------------------------|
|--9-/-12--12/14-14----17\16-17\16-17\12--12-12/14-14---------|
|--7-/-10--10/12-12----15\14-15\14-15\10--10-10/12-12---------|


|-------------------------------|
|-------------------------------|
|-------------------------------|
|-------------------------------|
|------5------------------------|
|--7-7---7--6-5-5-5--0-4-5-5-6--|


|------------------------------------------------|
|------------------------------------------------|
|------------------------------------------------|
|------------------7-8-9----------------7-8-9----|
|-9-9------7-7-8-9------9-9------7-7-8-9---------|
|-7-7-7-10--------------7-7-7-10-----------------|


|-----------------------------------------------------------|
|-----------------------------------------------------------|
|11-9-----------------------11-9----------------------------|
|----11-10-9--------------------11-10-9---------------------|
|------------7--------------------------7-------------------|
|--------------7-7/9-9--------------------7-7/9-9-----------|

Solo 1:
|------------------------------------------------------------|
|---------------------------------5----------5-5-------------|
|-------------------------4-4-4h6---6--6p4-------6p4---4h6---|
|-----2-2h4-4p2---2-4-4/6------------------6---------6-------|
|-2-4-----------4--------------------------------------------|
|------------------------------------------------------------|

|-------------9-----------------------------------9---------------|
|-------------9--12p9-----9-------------------------129----9-129--|
|-6---11-11^----------11----9-9^------------9-11^------119--------|
|---------------------------------11-9-9h11-----------------------|
|-----------------------------------------------------------------|
|-----------------------------------------------------------------|

|----------------9-12^----9--------12^---12^^12---12^^12-129----9---------|
|----9-129-----9---12^------12-9-9---------------------------12---12-12^--|
|-11-------119------------------------------------------------------------|
|-------------------------------------------------------------------------|
|-------------------------------------------------------------------------|
|-------------------------------------------------------------------------|

|-----9---------9-------------------------------------------------------|
|-12^---129---9---129---------------------------------------------------|
|----------11---------11-11p9---9-9--------------9-9--------------9-----|
|----------------------------11-----11p9----9h11-----11p9----9-11-9-9---|
|----------------------------------------11---------------11------------|
|-----------------------------------------------------------------------|

|----------------------------------------------------------|
|----------------------------------------------------------|
|------------------------6-4-------------------------------|
|-9h11-9h11-9h11-9h11--------6-5-4-2-----------------------|
|------------------------------------2-2/4-4---------------|
|----------------------------------------------------------|

|----------------------------------------------------------|
|----------------------------------------------------------|
|----------------------------------------------------------|
|----------------------------4-5-4-5p4h5p4p0---------------|
|--7h5-7---5h7p5-----7h5-7---------------------------------|
|----------------------------------------------------------|


Solo 2:
|----------------------------------------------------------|
|----------------------------------------------------------|
|--------------7---7-9-9^^^--9^^^---9^^--7---7/9-----------|
|------5---7/9---9-------------------------9---------------|
|--6/7---7-------------------------------------------------|
|----------------------------------------------------------|

|-----------10-10h12-12^-12^-12^^-10-12p10-----10----------------------|
|-8---10/12---------------------------------------12-12\10-8-11-8------|
|---9--------------------------------------12---------------------9-7--|
|----------------------------------------------------------------------|
|----------------------------------------------------------------------|
|----------------------------------------------------------------------|

|----------------------------------------------------------|
|----------------------------------------------------------|
|---------------------------------7---7-9-9^^-9^^-9^^^^----|
|-9\7-5--7p5----5h7-------5-7-7/9---9----------------------|
|------------7------5h7------------------------------------|
|----------------------------------------------------------|

|----------------------------------------------------------|
|----------------------------------------------------------|
|--9^-9^^-9p7----7-----------------------------------------|
|-------------9------9\7-5-7---5-7-7^^--7^^--7^^^-5--------|
|----------------------------------------------------7-----|
|----------------------------------------------------------|

12.PARANOID

Intro:
e|------------------------------------------------------|
B|------------------------------------------------------|
G|------------------------------------------------------|
D|-------------------------------12h14-------12---------|
A|--12h14---12h14---12h14--12h14-------12h14----14------|
E|--12------12------12----------------------------------|

1st and 4th Verse:
e|-------------------------||---------------------------|
B|-------------------------||---------------------------|
G|-------------------------||o--------------------------|
D|-------------------------||o--------------------------|
A|-14-14-14-14-14-14-14-14-||---12-12-12-12-12-12-12-12-|
E|-12-12-12-12-12-12-12-12-||---10-10-10-10-10-10-10-10-|
pm......................................................

e|-----------------------------------------------------||
B|----------------------12-----------------------------||
G|-12-------------------12-----------------------------||
D|-12-------------------12-----------------------------||
A|-10--12-------14------------14-14-14-14-14-14-14-14--||
E|-----10-------12------------12-12-12-12-12-12-12-12--||
pm                            .........................

e|------------------------------------------------------|
B|------------------------------------------------------|
G|--------------------------12--------------------------|
D|--------------------------12--------------------------|
A|-12-12-12-12-12-12-12-12--10--12------14--------------|
E|-10-10-10-10-10-10-10-10------10------12-----0---0----|
pm........................

e|------------------------------------------------------------|
B|------------------------------------------------------------|
G|------------------------------------------------------------|
D|------------------------------------------------------------|
A|-14\10----10----12----14-14-14-14-14-14-14-14-14-14-14-14---|
E|-12\-8-----8----10----12-12-12-12-12-12-12-12-12-12-12-12-0-|
pm                       ..................................

2nd and 5th Verses:
e|-------------------------------------------------------------|
B|-------------------------------------------------------------|
G|------------------------------------------------------12-----|
D|------------------------------------------------------12-12--|
A|-14-14-14-14-14-14-14-14-----12-12-12-12-12-12-12-12--10-12--|
E|-12-12-12-12-12-12-12-12-----10-10-10-10-10-10-10-10---------|
pm....................................................

e|--------12------------------------------------------------------|
B|--------12------------------------------------------------------|
G|--------12------------------------------------------------------|
D|--------12------------------------------------------------------|
A|-14------------14-14-14-14-14-14-14-14--12-12-12-12-12-12-12-12-|
E|-12------------12-12-12-12-12-12-12-12--10-10-10-10-10-10-10-10-|
pm               .................................................

e|----------------------------------------------------|
B|----------------------------------------------------|
G|-12-------------------------------------------------|
D|-12-------------------------------------------------|
A|-10--12-------14------------------------------------|
E|-----10-------12----12--12--------------------------|
pm                   ........

Bridge:
e|---------------------------------------------------|
B|---------------------------------------------------|
G|---------------------------------------------------|
D|---------------------------------------------------|
A|-14~~~~~---------14~~~----x\\-----12~~~--------12--|
E|-12~~~~~---------12~~~----x\\-----10~~~--------10--|

e|---------------------------------------------------|
B|---------------------------------------------------|
G|---------------------------------------------------|
D|---------------------------------------------------|
A|-14~~~~~---------14~~-------------12~~---------12--|
E|-12~~~~~---------12~~-------------10~~---------10--|

e|----------------------------------------------------|
B|----------------------------------------------------|
G|----------------------------------------------------|
D|----------------------------------------------------|
A|-14-14-14-14-14-14-14-14-14-14-14-14-14-14-14-14-14-|
E|-12-12-12-12-12-12-12-12-12-12-12-12-12-12-12-12-12-|
pm....................................................

e|---------------------------------------------------------------|
B|---------------------------------------12----------------------|
G|--------------------------12-----------12----12--11------12h13-|
D|--------------------------12-12--------12----12---x--14--12----|
A|-12-12-12-12-12-12-12-12--10-12---14---------10--12--14--------|
E|-10-10-10-10-10-10-10-10----------12-------------10--12--------|
pm........................

3rd Verse:
e|----------------------------------------------------|
B|----------------------------------------------------|
G|----------------------------------------------------|
D|----------------------------------------------------|
A|-14-14-14-14-14-14-14-14-14-14-14-14-14-14-14-14-14-|
E|-12-12-12-12-12-12-12-12-12-12-12-12-12-12-12-12-12-|
pm....................................................

e|------------------------------------------12-------------------|
B|------------------------------------------12-------------------|
G|--------------------------12--11----------12----12----------12-|
D|--------------------------12---x----------12----12----------12-|
A|-12-12-12-12-12-12-12-12--10--12-----14---------10--12--14-----|
E|-10-10-10-10-10-10-10-10------10-----12-------------10--12-----|
pm........................

Fill: (2:44)
e|---------------------|
B|---------------------|
G|---------------------|
D|---------------------|
A|--2------------------|
E|--------3^-------0---|

Solo: w/ring modulation effect and uneffected
      track panned to opposite stereo channels
e|-----------------------------------------------------------|
B|-----------------------------------------------------------|
G|-9^---7--7h9~~--9--7-9p7-----------------------------------|
D|--------------------------9\7--5h7-5h7--------5------------|
A|---------------------------------------5h7-7-----7---7~----|
E|-----------------------------------------------------------|

e|-------------------------------------------------------------------|
B|---------------------8--10-10^-8-10^-p8-10--8----------------------|
G|---------7h9-9--7/9---------------------------9--9---7h9--9--9/14--|
D|-5h7-7/9-----------------------------------------------------------|
A|-------------------------------------------------------------------|
E|-------------------------------------------------------------------|

e|-----12--------------------------15^--15^--15^-p12--15p12----15p12-----|
B|-12------15--15^--15^--15^--12----------------------------15-------15^-|
G|-----------------------------------------------------------------------|
D|-----------------------------------------------------------------------|
A|-----------------------------------------------------------------------|
E|-----------------------------------------------------------------------|

e|--------------12--------------------------------------------------------|
B|-15p12-----12----15p12--------------------------------------------------|
G|-------14^-------------14--14p12----12--14^-p12--14^--12h14p12----12----|
D|---------------------------------14----------------------------14----14-|
A|------------------------------------------------------------------------|
E|------------------------------------------------------------------------|

e|-----------------------------------------------------------------------|
B|-----------------------------------------------------------------------|
G|-----------------------------------------------------12----------------|
D|-14p12-----12------------------------------12--12h14----14--12---14-12-|
A|-------14-------12--10--12p10----10h12/14------------------------------|
E|------------------------------12---------------------------------------|

e|------------------------------------------------------------------------|
B|------------------------------------------------------------------------|
G|------------------------------------------------------------------------|
D|-14---------------------------------------------------------------------|
A|------14-14-14-14-14-14-14-14-14-14-14-14-14-14-14-14-14-12-12-12-12-12-|
E|------12-12-12-12-12-12-12-12-12-12-12-12-12-12-12-12-12-10-10-10-10-10-|
pm      ..................................................................

e|------------------------------------------------------------------|
B|------------------------------------12----------------------------|
G|------------------------12-11-------12h13---12----------12h13-----|
D|------------------------12--x---14--12------12--12--14--12--------|
A|-12-12-12-12-12-12-12---10-12---14--12------10--12--14--12--------|
E|-10-10-10-10-10-10-10---10-10---12--------------10--12------------|
pm.....................
Добавлено: 10.08.2013
Другие материалы по этой песне:
  • Аккорды и текст

Страница создана 10.08.2013
http://primanota.ru/ozzy-osbourne/speak-of-the-devil-chords.htm
Привет, Гость.
Предлагаем пройти революционный курс по гитаре.
Подарок от PrimaNota.Ru, забирай!