PrimaNota.ru - самый крупный в мире бесплатный архив песенных текстов, аккордов, табулатур и нот


Ozzy Osbourne - Junkie - текст песни, таба, видео

Регистрация Запомнить меня
Войти через:  Facebook Google Twitter Vk Yandex Mail.ru

Ozzy Osbourne - Junkie - текст песни, таба, видео

Печатать
Просмотров: 279
Уроки эстрадного вокала в Санкт-Петербурге
Авторы: Marti Frederiksen, Robert Trujillo, Ozzy Osbourne, Joe Holmes

Artist: Ozzy Osbourne
Album: Down To Earth
Title: Junkie


tab explained
*= pinch harmonic
b= bend (you can juge how far)
v= vibrato
/\= slide or trem pick in solo
s= slide in the solo
pm... palm mute dotted notes
h= hammaron
xx= muffeled strings

Tuning = standard |E|A|D|G|B|e|

Intro

e|-------------------------------------------------------------------|
b|-------------------------------------------------------------------|
g|-------------------------------------------------------------------| X2
d|-------------------------------------------------------------------|
a|-------------------------------------------------------------------|
E|--5*b--5*v--5--3h5--5v--3--5*b--5v--5--3---------------------------|

verse
e|-------------------------------------------------------------------|
b|-------------------------------------------------------------------|
g|-------------------------------------------------------------------|
d|-------------------------------------------------------------------|
a|-------------------------------------------------------------------|
E|--5b--5--5--3h5--5--3--5b--5--5--3*---0*--0*--3*--0*---------------|
you can play this in power chords if you want to make it sound more Meaty!

Versse part b
e|-------------------------------------------------------------------|
b|-------------------------------------------------------------------|
g|-------------------------------------------------------------------|
d|------------------------------------2-2-2-2------------------------|
a|------------------------------------2-2-2-2------------------------|
E|--5b--5--5--3h5--5--3--5b--5--5--3--0-0-0-0------------------------|
                                    pm. . . . Heavaly muted
verse part c
e|-------------------------------------------------------------------|
b|-------------------------------------------------------------------|
g|-------------------------------------------------------------------|
d|-------------------------------------------------------------------|
a|------------------------------------x-x-x-x------------------------|
E|--5b--5--5--3h5--5--3--5b--5--5--3--x-x-x-x------------------------|

chorus
e|-------------------------------------------------------------------|
b|-------------------------------------------------------------------|
g|-------------------------------------------------------------------|x2
d|--5----8----6---------------1h3---------1h3------------------------|
a|--3----6----4------6/16\0-------1-2-3-0-----1-2-3-0----------------|
E|-------------------------------------------------------------------|

riff decending back 2 verse
e|-------------------------------------------------------------------|
b|-------------------------------------------------------------------|
g|--5*--3*-----------------5*--3*------------------------------------|
d|----------5*--4*--3*-------------5*--4*--3*------------------------|
a|---------------------6*---------------------6*---------------------|
E|-------------------------------------------------------------------|

verse
e|-------------------------------------------------------------------|
b|-------------------------------------------------------------------|
g|-------------------------------------------------------------------|
d|-------------------------------------------------------------------|
a|-------------------------------------------------------------------|
E|--5b--5--5--3h5--5--3--5b--5--5--3---0*--0*--3*--0*----------------|


Versse part b
e|-------------------------------------------------------------------|
b|-------------------------------------------------------------------|
g|-------------------------------------------------------------------|
d|------------------------------------2-2-2-2------------------------|
a|------------------------------------2-2-2-2------------------------|
E|--5b--5--5--3h5--5--3--5b--5--5--3--0-0-0-0------------------------|
                                    pm. . . . Heavaly muted
verse part c
e|-------------------------------------------------------------------|
b|-------------------------------------------------------------------|
g|-------------------------------------------------------------------|
d|-------------------------------------------------------------------|
a|------------------------------------x-x-x-x------------------------|
E|--5b--5--5--3h5--5--3--5b--5--5--3--x-x-x-x------------------------|

chorus
e|-------------------------------------------------------------------|
b|-------------------------------------------------------------------|
g|-------------------------------------------------------------------|x2
d|--5----8----6---------------1h3---------1h3------------------------|
a|--3----6----4------6/16\0-------1-2-3-0-----1-2-3-0----------------|
E|-------------------------------------------------------------------|
    .    .    .   let ring

riff decending back 2 bridge
e|-------------------------------------------------------------------|
b|-------------------------------------------------------------------|
g|--5*--3*-----------------5*--3*------------------------------------|
d|----------5*--4*--3*-------------5*--4*--3*------------------------|
a|---------------------6*---------------------6*---------------------|
E|-------------------------------------------------------------------|

e|-------3-----------------------------3-----------------------------|
b|-------3-----------------------------3-----------------------------|
g|------------------5/6\5--3---------------------5/6\5--3------------| X2
d|--5---------------5/6\5--3-------5-------------5/6\5--3------------|
a|--5------------------------------5---------------------------------|
E|-------------------------------------------------------------------|
    .    .  let ring		   .   .


e|-------------------------------------------------------------------|
b|-------------------------------------------------------------------|
g|-------------------------------------------------------------------|
d|-------------------------------------------------------------------|
a|-------------------------------------------------------------------|
E|--5b--5--5--3h5--5--------------------5b--5--5--3h5--5-------------|
                   . stop on note                      .

Fillin
e|----------------17-20-17-20----------------------------------------|
b|--17-19-17-19-----------------17-17-17-19-17-----------------------|
g|---------------------------------------------19v-19v-19v-19v-19v---|
d|-------------------------------------------------------------------|
a|-------------------------------------------------------------------|
E|-------------------------------------------------------------------|

riff befor solo
e|-------------------------------------------------------------------|
b|-------------------------------------------------------------------|
g|-------------------------------------------------------------------|
d|-------------------------------------------------------------------|x2
a|-------------------------------------------------------------------|
E|--5b--5--5--3h5--5--3--5b--5--5--3---------------------------------|

in solo  ''/'' = trem pick
And      ''s'' = slide

The solo
e|--5-5-5-5-5-5-5-5-5-5-5-s-8-8-8-8-8-8-8-8-8-s-10-10-10-10-s-14-14-14-14|
b|--/-/-/-/-/-/-/-/-/-/-/---/-/-/-/-/-/-/-/-/---//-//-//-//---//-//-//-//|
g|-----------------------------------------------------------------------|
d|-----------------------------------------------------------------------|
a|-----------------------------------------------------------------------|
E|-----------------------------------------------------------------------|

e|----------------17-20-17-20---19-19-19---20-20-20---19-19-19---17-17-17|
b|--17-19-17-19-----------------//-//-//---//-//-//---//-//-//---//-//-//|
g|-----------------------------------------------------------------------|
d|-----------------------------------------------------------------------|
a|-----------------------------------------------------------------------|
E|-----------------------------------------------------------------------|

         						    (see note below)
e|--19-19-19---------12------------11--10--------9-8------------------------|
b|------------20v-------11------10--------9-----8---7--------(11hpt--rh8\0)-|
g|-------------------------10--9------------8--7-----6----------------------|
d|--------------------------------------------------------------------------|
a|--------------------------------------------------------------------------|
E|--------------------------------------------------------------------------|

Important note! om 11hpt put your right hand on fret 8 on the b-sring and slide down
whilst hammaring and puling of violently on fret 11

                (-----------------------repeat about 3x--------------------------|
e|--------------9---9--9--9--9--9--9---9---9--9--9--9--9----9---9--9--9--9--9----|
b|--------------12b-12-12-12-12-12-12--12b-12-12-12-12-12---12b-12-12-12-12-12---|
g|-------------------------------------------------------------------------------|
d|--0--3b--0b--------------------------------------------------------------------|
a|-------------------------------------------------------------------------------|
E|-------------------------------------------------------------------------------|


e|-----------------------------------------------------------------------|
b|---5b------5b------5b------5b------5b------5b--------------------------|
g|-----------------------------------------------------------------------|
d|-----------------------------------------------------------------------|
a|-------5b------5b------5b------5b------5b------5b----------------------|
E|-----------------------------------------------------------------------|

e|------------------------------------------------------------------------------12-|
b|--------------------------------------------------10-------------------9-10-12---|
g|-----------------------9------------------9-10-12--------------9-10-12-----------|
d|---------------9-10-12------------9-10-12--------------9-10-12-------------------|
a|-------9-10-12------------9-10-12------------------------------------------------|
E|--9-12---------------------------------------------------------------------------|

e|------------------9-10-12-------------12-13-15----------12-13-15-----------------|
b|----------9-10-12------------12-13-15----------12-13-15----------12-13-15--------|
g|--9-10-12------------------------------------------------------------------------|
d|---------------------------------------------------------------------------------|
a|---------------------------------------------------------------------------------|
E|---------------------------------------------------------------------------------|

e|12-13-15---------12-13-15----------12-13-15----------12-13-15----------12-13-15s0-|
b|--------12-13-15----------12-13-15----------12-13-15----------12-13-15------------|
g|----------------------------------------------------------------------------------|
d|----------------------------------------------------------------------------------|
a|----------------------------------------------------------------------------------|
E|----------------------------------------------------------------------------------|

outro
e|------------------------------------------------------------------------|
b|------------------------------------------------------------------------|
g|------------------------------------------------------------------------|
d|------------------------------------------------------------------------|
a|------------------3*-------xx-----------------3*-5*-3*------------------|
E|--3h5-3-3h5-3--0------5*v--xx---3h5-3-3h5-3-0----------5*v--------------|

note: on the recording the outro is played on a 7 string but i have got the DVD
and this is how he playes it live... and it fits fine

OUTRO SOLO RIFF (BACKGROUND)
e|-----------------------------------------------------------------------|
b|---8h10--8v--8h10--8---------------8h10--8v--8h10--8------8/10v--------|
g|---------------------9-------------------------------9-----------------|
d|-----------------------10--7v--------------------------10--------------|
a|-------------------------------xx--------------------------------------|
E|-------------------------------xx--------------------------------------|

e|-----------------------------------------------------------------------|
b|-----------------------------------------------------------------------|
g|-----------------------------------------------------------------------|
d|-----------------------------------------------------------------------|
a|-----------------------------------------------------------------------|
E|--5b--5--5--3h5--5v--3--5b--5--5--3v-----------------------------------|

					END


It's 1000% correct. i have the dvd and if u have any questions plz email me at substaind_16@hotmail.com
Добавлено: 06.03.2012
Другие материалы по этой песне:

Страница создана 05.03.2012
http://primanota.ru/ozzy-osbourne/junkie-chords.htm
Привет, Гость.
Предлагаем пройти революционный курс по гитаре.
Подарок от PrimaNota.Ru, забирай!