PrimaNota.ru - самый крупный в мире бесплатный архив песенных текстов, аккордов, табулатур и нот


Ozzy Osbourne - Dog The Bounty Hunter - текст песни, таба, видео

Регистрация Запомнить меня
Войти через:  Facebook Google Twitter Vk Yandex Mail.ru

Ozzy Osbourne - Dog The Bounty Hunter - текст песни, таба, видео

Печатать
Просмотров: 165
Artist: OZZY OSBOURNE
Album: PRINCE OF DARKNESS DISC 3
Song: DOG THE BOUNTY HUNTER (THEME FROM THE SHOW)
Tabbed by: MEGADETH3000 - bensdmf@hotmail.co.uk
Date: 23rd October 2007

Tuning: DROP C (C,G,C,F,A,D)

*****THIS IS THE TAB OF THE VERSION ON THE CD, WHICH IS 53 SECONDS LONG.*****
*****ON THE SHOW, ITS EXACTLY THE SAME BUT A FEW PARTS ARE CUT OUT TO MAKE IT SHORTER.******

INTRO: pick scrape (or Pinched Harmonic on 12th frets of 2nd & 3rd strings)

MAIN RIFF: (0:04)

D|------------------------------|------------------------------|
A|------------------------------|------------------------------|
F|------------------------------|------------------------------|
C|--0--0--5h6--6--0--0--0h3--3--|--0--0--5h6--6--0--0--0h3--3--|
G|--0--0--5h6--6--0--0--0h3--3--|--0--0--5h6--6--0--0--0h3--3--|
C|--0--0--5h6--6--0--0--0h3--3--|--0--0--5h6--6--0--0--0h3--3--|

VERSE: (0:10)

    PM--          PM--             PM--          PM--             PM--          PM---|
D|------------------------------|----------------------------------------------------|
A|------------------------------|----------------------------------------------------|
F|------------------------------|----------------------------------------------------|
C|--0--0--5h6--6--0--0--0h3--3--|--0--0--5h6--6--0--0--0h3--3------------------------|
G|--0--0--5h6--6--0--0--0h3--3--|--0--0--5h6--6--0--0--0h3--3------------------------|
C|--0--0--5h6--6--0--0--0h3--3--|--0--0--5h6--6--0--0--0h3--3------------------------|

C|--0--0--5h6--6--0--0--0h3--3--|
G|--0--0--5h6--6--0--0--0h3--3--|
C|--0--0--5h6--6--0--0--0h3--3--|

| PM--          (pick scrape)    PM--          PM--             PM--          PM---|
D|------------------------------|--------------------------------------------------|
A|------------------------------|--------------------------------------------------|
F|------------------------------|--------------------------------------------------|
C|--0--0--5h6--6----------------|--0--0--5h6--6--0--0--0h3--3----------------------|
G|--0--0--5h6--6----------------|--0--0--5h6--6--0--0--0h3--3----------------------|
C|--0--0--5h6--6--xxxxxxxxxxxx--|--0--0--5h6--6--0--0--0h3--3----------------------|

C|--0--0--5h6--6--0--0--0h3--3-----------------------------------|
G|--0--0--5h6--6--0--0--0h3--3-----------------------------------|
C|--0--0--5h6--6--0--0--0h3--3-----------------------------------|
  PM--          PM--             PM--          PM----------------|
D|------------------------------|--------------------------------|
A|------------------------------|--------------------------------|
F|------------------------------|--------------------------------|
C|--0--0--5h6--6--0--0--0h3--3--|--0--0--5h6--6--0--0--0h3--3----|
G|--0--0--5h6--6--0--0--0h3--3--|--0--0--5h6--6--0--0--0h3--3----|
C|--0--0--5h6--6--0--0--0h3--3--|--0--0--5h6--6--0--0--0h3--3----|

CHORUS: (0:30)

D|---------------------------|---------------------------|
A|---------------------------|---------------------------|
F|---------------------------|---------------------------|
C|--0--0--3--5--3--0--5-/-7--|--0--0--3--5--3--0--5-/-7--|
G|--0--0--3--5--3--0--3-/-5--|--0--0--3--5--3--0--3-/-5--|
C|--0--0--3--5--3--0---------|--0--0--3--5--3--0---------|

C|--0--0--3--5--3--0--5-/-7----|
G|--0--0--3--5--3--0--3-/-5----|
C|--0--0--3--5--3--0-----------|


D|---------------------------|---------------------------|----------|
A|---------------------------|---------------------------|----------|
F|---------------------------|---------------------------|----------|
C|--7------------------------|--0--0--3--5--3--0--5-/-7--|--0--x--0-|
G|-----8--7v-----------------|--0--0--3--5--3--0--3-/-5--|--0--x--0-|
C|---------------------------|--0--0--3--5--3--0---------|--0--x--0-|



D|---------------------------|---------------------------|
A|---------------------------|---------------------------|
F|---------------------------|---------------------------|
C|--0--0--3--5--3--0--5-/-7--|--7------------------------|
G|--0--0--3--5--3--0--3-/-5--|-----8--7v-----------------|
C|--0--0--3--5--3--0---------|---------------------------|

this is my first tab
email me if you have any questions/comments


LEGEND AND NOTES:
h: Hammer-on            p: Pull-off         b: Bend string up
r: Unbend string        /: Slide up         \: Slide down
PM: palm mute       x: Muted string     v: Vibrato
Добавлено: 19.11.2013
Другие материалы по этой песне:
  • Аккорды и текст

Страница создана 19.11.2013
http://primanota.ru/ozzy-osbourne/dog-the-bounty-hunter-chords.htm
Привет, Гость.
Предлагаем пройти революционный курс по гитаре.
Подарок от PrimaNota.Ru, забирай!