PrimaNota.ru - самый крупный в мире бесплатный архив песенных текстов, аккордов, табулатур и нот


Ozzy Osbourne - Crazy train1 - таба, видео

Регистрация Запомнить меня
Войти через:  Facebook Google Twitter Vk Yandex Mail.ru

Ozzy Osbourne - Crazy train1 - таба, видео

Печатать
Просмотров: 134


-------------------------------------------------------------------------------
			     Crazy Train - Ozzy Osbourne
-------------------------------------------------------------------------------
Tabbed by: Raymond Upton
Email:Silversword35@hotmail.com

Tuning: Standard

e|---------------------------------------------------------------------------|
B|---------------------------------------------------------------------------|
G|---------------------------------------------------------------------------|
D|--------------------00-----------------------------------------------------|
A|----00------------------------------------00-------------------------------|
E|22------00--22--------------00-----22------------00-------22-----------------|



e|-------------------------------------------------------------------------|
B|---------------------------------------------------------------------------|
G|---------------------------------------------------------------------------|
D|---------------------------------------------------------------------------|
A|-------------4----------5-------------4------------2-----------2---------------|
E|------22----------2-----------2-----------2------------5-4-5----5-4-0-----------------|



e|---------------------------------------------------------------------------|
B|---------------------------------------------------------------------------|
G|---------------------------------------------------------------------------|
D|---------------------------------------------------------------------------|
A|---------------4----------5--------------4-2-----------------------------------|
E|------2-2-----------2---------2------------------------------------------------|

That's as far as I got for the intro but I couldn't leave you without the solo so here you go its in full and sounds perfect to me

e|---------------------------------------------------------------------------|
B|---------------------------------------------------------------------------|
G|------11----11--11---11-------9--|--7----7---7---7---6--|--------------------------|
D|------11----11--11---11-------9--|--7----7---7---7---6--|--------------------------|
A|-------9----9----9---9--------7--|-5----5---5---5---4---|--------------------------|
E|---------------------------------------------------------------------------|



e|---------------------------------------------------------------------------|
B|---------------------------------------------------------------------------|
G|-------4---4----2---------|--------------------------|--------------------------|
D|-------4---4----2----6--- |---4---4---4---4---4---4--|--2---2---2--2-----------------------|
A|-------2---2----0----6----|---4---4---4---4---4---4--|--2---2---2--2-----------------------|
E|---------------------4----|---2---2---2---2---2---2--|--0---0---0--0--------------|


Well that's the solo and intro ill finish it off when I have time. But enjoy, any comments send to my email with subject 'comments for tab' thanks a lot. Rock on fellow guitarists 





| /  slide up
|   slide down
| h  hammer-on
| p  pull-off
| ~  vibrato
| +  harmonic
| x  Mute note
===============================================================================


Добавлено: 19.12.2013
Другие материалы по этой песне:
  • Аккорды и текст

Страница создана 19.12.2013
http://primanota.ru/ozzy-osbourne/crazy-train1-chords.htm
Привет, Гость.
Предлагаем пройти революционный курс по гитаре.
Подарок от PrimaNota.Ru, забирай!