PrimaNota.ru - самый крупный в мире бесплатный архив песенных текстов, аккордов, табулатур и нот


Ozric Tentacles - Vibuthi - таба, видео

Регистрация Запомнить меня
Войти через:  Facebook Google Twitter Vk Yandex Mail.ru

Ozric Tentacles - Vibuthi - таба, видео

Печатать
Просмотров: 81
Vibuthi (intro) - Ozric Tentacles
Transcribed by - Geff Daley (own work) wheest@tesco.net

I have tabbed this up to where the bass comes in, I think its accurate it's
certainly how i've been playing it for a while now anyway.

Seen as the majority of this riff is based on hammer-ons, pull-offs 
and artificial hammer-ons I have put a '*' over the notes which are 
actually picked. You will need to refer to the song for the rhythm.

P
^ = Pull Off

H
^ = Hammer on

[x] = Artificial Hammer on (replace 'x' with fretted note); 
if your not sure what an artificial hammer on is, you play them by not 
picking the string but by simply hammering down on the correct fret with
 your fretting hand.

s
/ = Slide up

s
\ = Slide down


Main Intro Riff:

    *H P       *H H   *        *H P P H P       * * *
E |--------------------------|-------------------------|
B |--^-^--------^-^----s-s---|--^-^-^-^-^--------------|
G |-0-2-0------0-2-3--3/7\3--|-2-3-2-0-2-0------0------|
D |-------[4]----------------|-------------[4]----1----|
A |--------------------------|----------------------3--|
E |--------------------------|-------------------------|
 
    *H P      *H P      *H P         *H H   *      *P
E |--------------------------------|--------------------|
B |--------------------------------|--------------------|
G |--^-^-------^-^-------^-^-------|--^-^----s-s----^---|
D |-0-1-0-----0-1-0-----0-1-0------|-0-1-3--3/7\3--1-0--|
A |-------[3]-------[3]-------[3]--|--------------------|
E |--------------------------------|--------------------|

    *H P       *H H   *        *H P P H P       * * *
E |--------------------------|-------------------------|
B |--^-^--------^-^----s-s---|--^-^-^-^-^--------------|
G |-0-2-0------0-2-3--3/7\3--|-2-3-2-0-2-0------0------|
D |-------[4]----------------|-------------[4]----1----|
A |--------------------------|----------------------3--|
E |--------------------------|-------------------------|
   
    *H P       *H H     *H H P P        * * *
E |-------------------|------------------------|
B |-------------------|--^-^-^-^---------------|
G |--^-^--------^-^---|-0-2-3-2-0-------0------|
D |-0-1-0------0-1-3--|------------[3]----1-0--|
A |-------[3]---------|------------------------|
E |-------------------|------------------------|


Fast Lick before bass Comes In:

    *H H  *H   *H H  *H   *H H  *H  * * * * *  *H P      * *
E |-----------------------------------------------------------|
B |-----------------------------------------------------------|
G |--------^----------^----------^----------------------------|
D |--^-^--5-7---^-^--5-7---^-^--5-7---6---5-----^-^-----------|
A |-5-6-8------5-6-8------5-6-8-----8---7---4--4-5-4-----5-4--|
E |--------------------------------------------------[7]------|



Author: Geff Daley

     
Добавлено: 05.06.2013
Другие материалы по этой песне:
  • Аккорды и текст

Страница создана 05.06.2013
http://primanota.ru/ozric-tentacles/vibuthi-chords.htm
Привет, Гость.
Предлагаем пройти революционный курс по гитаре.
Подарок от PrimaNota.Ru, забирай!