PrimaNota.ru - самый крупный в мире бесплатный архив песенных текстов, аккордов, табулатур и нот


Ozric Tentacles - Iscence - бас-таба, видео

Регистрация Запомнить меня
Войти через:  Facebook Google Twitter Vk Yandex Mail.ru

Ozric Tentacles - Iscence - бас-таба, видео

Печатать
Просмотров: 77
-----------------------------------------------------------------------
                    ISCENCE (Bass) - Ozric Tentacles
-----------------------------------------------------------------------

Tabbed by: Imperfektionist
Standard Bass Tuning (EADG)


Verse 1 (4x Mainriff):
G|-----------------------------|--------------------------------|
D|--------5-5------------------|--------5-5----8-8--------------|
A|--3---3-----6-------6------1-|--3---3-----6------/10--6--3p-1-|
E|----------------------3--3---|--------------------------------|


G|-------------------------------|------------------------------|
D|----------5-5------------------|--------5-5----8-8------------|
A|----3-3-3-----6-------6------1-|--3---3-----6------/10--3-----|
E|------------------------3--3---|------------------------------|

 
G|-----------------------------|--------------------------------|
D|--------5-5------------------|--------5-5----8-8--------------|
A|--3---3-----6-------6------1-|--3---3-----6------/10--6--3p-1-|
E|----------------------3--3---|--------------------------------|


G|-------------------------------|------------------------------|
D|----------5-5------------------|--------5-5----8-8------------|
A|----3-3-3-----6-------6------1-|--3---3-----6------/10--3-----|
E|------------------------3--3---|------------------------------|


G|-----------------------------|--------------------------------|
D|--------5-5------------------|--------5-5----8-8--------------|
A|--3---3-----6-------6------1-|--3---3-----6------/10--6--3p-1-|
E|----------------------3--3---|--------------------------------|


G|-------------------------------|------------------------------|
D|----------5-5------------------|--------5-5----8-8------------|
A|----3-3-3-----6-------6------1-|--3---3-----6------/10--3-----|
E|------------------------3--3---|------------------------------|


G|-----------------------------|--------------------------------|
D|--------5-5------------------|--------5-5----8-8--------------|
A|--3---3-----6-------6------1-|--3---3-----6------/10--6--3p-1-|
E|----------------------3--3---|--------------------------------|

 
G|-------------------------------|----------------------------------|
D|----------5-5------------------|--------5-5----8-8-----------5h-6-|
A|----3-3-3-----6-------6------1-|--3---3-----6------/10--3---------|
E|------------------------3--3---|----------------------------------|


Pre-Chorus 1:  
G|--------------------------------|---------------------------------|
D|--5-3---------------------------|----------------------------5h-6-|
A|------3----------3-3-3----3-4-3-|----------3----------------------|
E|--------4-1--1-4----------------|--3--3------3-4-1-1-1------------|


G|--------------------------------|---------------------------------|
D|--5-3---------------------------|----------------------------5h-6-|
A|------3----------3-3-3----3-4-3-|----------3----------------------|
E|--------4-1--1-4----------------|--3--3------3-4-1-1-1------------|


Chorus 1: 
G|--------------------------------|---------------------------------|
D|--5-3---------------------------|---------------------------------|
A|------3----------3-3-3----1-1-3-|--4----4-3-4-4-4-----------------|
E|--------4-1--1-4----------------|-----------------4--4--4--3--3-1-|


G|--------------------------------|---------------------------------|
D|----3---------------------------|----------------------------5h-6-|
A|------3----------3-3-3----1-1-3-|--6----6-6-8-8-8-----------------|
E|--------4-1--1-4----------------|-----------------6--6------------|

 
G|--------------------------------|---------------------------------|
D|--5-3---------------------------|---------------------------------|
A|------3----------3-3-3----1-1-3-|--4----4-3-4-4-4-----------------|
E|--------4-1--1-4----------------|-----------------4--4--4--3--3-1-|


G|--------------------------------|--------------------------|
D|----3---------------------------|--------------------------|
A|------3----------3-3-3----1-1-3-|--4----4-----4--3---------|
E|--------4-1--1-4----------------|---------4-4--------------|


Verse 2 (3x Mainriff):
G|-----------------------------|--------------------------------|
D|--------5-5------------------|--------5-5----8-8--------------|
A|--3---3-----6-------6------1-|--3---3-----6------/10--6--3p-1-|
E|----------------------3--3---|--------------------------------|


G|-------------------------------|------------------------------|
D|----------5-5------------------|--------5-5----8-8------------|
A|----3-3-3-----6-------6------1-|--3---3-----6------/10--3-----|
E|------------------------3--3---|------------------------------|


G|-----------------------------|--------------------------------|
D|--------5-5------------------|--------5-5----8-8--------------|
A|--3---3-----6-------6------1-|--3---3-----6------/10--6--3p-1-|
E|----------------------3--3---|--------------------------------|


G|-------------------------------|------------------------------|
D|----------5-5------------------|--------5-5----8-8------------|
A|----3-3-3-----6-------6------1-|--3---3-----6------/10--3-----|
E|------------------------3--3---|------------------------------|


G|-----------------------------|--------------------------------|
D|--------5-5------------------|--------5-5----8-8--------------|
A|--3---3-----6-------6------1-|--3---3-----6------/10--6--3p-1-|
E|----------------------3--3---|--------------------------------|

 
G|-------------------------------|----------------------------------|
D|----------5-5------------------|--------5-5----8-8-----------5h-6-|
A|----3-3-3-----6-------6------1-|--3---3-----6------/10--3---------|
E|------------------------3--3---|----------------------------------|


Pre-Chorus 2:
G|--------------------------------|---------------------------------|
D|--5-3---------------------------|----------------------------5h-6-|
A|------3----------3-3-3----3-4-3-|----------3----------------------|
E|--------4-1--1-4----------------|--3--3------3-4-1-1-1------------|

  
G|--------------------------------|---------------------------------|
D|--5-3---------------------------|----------------------------5h-6-|
A|------3----------3-3-3----3-4-3-|----------3----------------------|
E|--------4-1--1-4----------------|--3--3------3-4-1-1-1------------|


Chorus 2:
G|--------------------------------|---------------------------------|
D|--5-3---------------------------|---------------------------------|
A|------3----------3-3-3----1-1-3-|--4----4-3-4-4-4-----------------|
E|--------4-1--1-4----------------|-----------------4--4--4--3--3-1-|


G|--------------------------------|---------------------------------|
D|----3---------------------------|----------------------------5h-6-|
A|------3----------3-3-3----1-1-3-|--6----6-6-8-8-8-----------------|
E|--------4-1--1-4----------------|-----------------6--6------------|


G|--------------------------------|---------------------------------|
D|--5-3---------------------------|---------------------------------|
A|------3----------3-3-3----1-1-3-|--4----4-3-4-4-4-----------------|
E|--------4-1--1-4----------------|-----------------4--4--4--3--3-1-|


G|--------------------------------|-------------------------------|
D|----3---------------------------|--------------------------5h-6-|
A|------3----------3-3-3----1-1-3-|--4----4-----4--3--------------|
E|--------4-1--1-4----------------|---------4-4-------------------|


Bridge: 
G|--------------------------------|---------------------------------|
D|--5-3---------------------------|----------------------------5h-6-|
A|------3----------3-3-3----3-4-3-|----------3----------------------|
E|--------4-1--1-4----------------|--3--3------3-4-1-1-1------------|

                                                     watch out here ...
G|--------------------------------|-------------------------------------|
D|--5-3---------------------------|---------------------5h-6-5-3---5h-6-|
A|------3----------3-3-3----3-4-3-|----------3-------------------3------|
E|--------4-1--1-4----------------|--3--3------3-4-1--------------------|


G|--------------------------------|---------------------------------|
D|--5-3---------------------------|----------------------------5h-6-|
A|------3----------3-3-3----3-4-3-|----------3----------------------|
E|--------4-1--1-4----------------|--3--3------3-4-1-1-1------------|


G|--------------------------------|-------------------------------|
D|--5-3---------------------------|--------------------------5h-6-|
A|------3----------3-3-3----3-4-3-|----------3--------------------|
E|--------4-1--1-4----------------|--3--3------3-4-1--------------|


Chorus 3:
G|--------------------------------|---------------------------------|
D|--5-3---------------------------|---------------------------------|
A|------3----------3-3-3----1-1-3-|--4----4-3-4-4-4-----------------|
E|--------4-1--1-4----------------|-----------------4--4--4--3--3-1-|


G|--------------------------------|--------------------------------|
D|----3---------------------------|---------------------------5h-6-|
A|------3----------3-3-3----1-1-3-|--6----6-6-8-8-8----------------|
E|--------4-1--1-4----------------|-----------------6--------------|


G|--------------------------------|---------------------------------|
D|--5-3---------------------------|---------------------------------|
A|------3----------3-3-3----1-1-3-|--4----4-3-4-4-4-----------------|
E|--------4-1--1-4----------------|-----------------4--4--4--3--3-1-|


G|--------------------------------|-----------------------------|
D|----3---------------------------|-----------------------------|
A|------3----------3-3-3----1-1-3-|--4----4-----4--3--3---------|
E|--------4-1--1-4----------------|---------4-4---------------3-|


Verse 3 (4x Mainriff):
G|-----------------------------|--------------------------------|
D|--------5-5------------------|--------5-5----8-8--------------|
A|--3---3-----6-------6------1-|--3---3-----6------/10--6--3p-1-|
E|----------------------3--3---|--------------------------------|


G|-------------------------------|------------------------------|
D|----------5-5------------------|--------5-5----8-8------------|
A|----3-3-3-----6-------6------1-|--3---3-----6------/10--3-----|
E|------------------------3--3---|------------------------------|

 
G|-----------------------------|--------------------------------|
D|--------5-5------------------|--------5-5----8-8--------------|
A|--3---3-----6-------6------1-|--3---3-----6------/10--6--3p-1-|
E|----------------------3--3---|--------------------------------|

 
G|-------------------------------|------------------------------|
D|----------5-5------------------|--------5-5----8-8------------|
A|----3-3-3-----6-------6------1-|--3---3-----6------/10--3-----|
E|------------------------3--3---|------------------------------|


G|-----------------------------|--------------------------------|
D|--------5-5------------------|--------5-5----8-8--------------|
A|--3---3-----6-------6------1-|--3---3-----6------/10--6--3p-1-|
E|----------------------3--3---|--------------------------------|

 
G|-------------------------------|------------------------------|
D|----------5-5------------------|--------5-5----8-8------------|
A|----3-3-3-----6-------6------1-|--3---3-----6------/10--3-----|
E|------------------------3--3---|------------------------------|


G|-----------------------------|--------------------------------|
D|--------5-5------------------|--------5-5----8-8--------------|
A|--3---3-----6-------6------1-|--3---3-----6------/10--6--3p-1-|
E|----------------------3--3---|--------------------------------|


G|-------------------------------|-----------------------------||
D|----------5-5------------------|--------5-5----8-8-----------||
A|----3-3-3-----6-------6------1-|--3---3-----6------/10--3----||
E|------------------------3--3---|-----------------------------||

| /  slide up
| h  hammer-on
| p  pull-off
=======================================================================
Добавлено: 17.01.2014
Другие материалы по этой песне:
  • Аккорды и текст

Страница создана 17.01.2014
http://primanota.ru/ozric-tentacles/iscence-chords.htm
Привет, Гость.
Предлагаем пройти революционный курс по гитаре.
Подарок от PrimaNota.Ru, забирай!