PrimaNota.ru - самый крупный в мире бесплатный архив песенных текстов, аккордов, табулатур и нот


Ozma - Rocks - аккорды и текст, таба, бас-таба, видео

Регистрация Запомнить меня
Войти через:  Facebook Google Twitter Vk Yandex Mail.ru

Ozma - Rocks - аккорды и текст, таба, бас-таба, видео

Печатать
Просмотров: 269
Уроки эстрадного вокала в Санкт-Петербурге
Rocks
Ozma
Song:      Rocks
Album:     Rock and Roll Part Three



Intro/Keys:
(Tabbed for the guitar)
||-10--------------------10------------10----------------------||
||---12-10----10-12-10-----12-10---------12-10--10-12-10-------||
||*--------12---------12--------12-9----------12--------12-12-*||
||*---------------------------------12------------------------*||
||-------------------------------------------------------------||
||-------------------------------------------------------------||

Riff 1:
||-----------------------||
||-----------------------||
||*---------------------*||Repeat 16x
||*------4-6------------*||2nd time, Repeat 8x
||--4-4--2-4-------------||3rd time, Repeat 16x
||--2-2------------------||

Riff 2: 
||-----------------------------------------------||
||-----------------------------------------------||
||----------------------------------------------*||
||------------4-4-4-4-4--6-6-6-6-6-4-4-4-4-4----*||x2
||-4-4-4-4-4--2-2-2-2-2--4-4-4-4-4-2-2-2-2-2-----||
||-2-2-2-2-2-------------------------------------||

Solo:
||-0-0-2-3-2-2-3-5-3-3-5-7-5-7-10-7-10-12-12--12-14-15-14h15p14p12-
||-----------------------------------------------------------------/
||-----------------------------------------------------------------
||-----------------------------------------------------------------/
||-----------------------------------------------------------------
||-----------------------------------------------------------------/

	---17-15-14-15-17-14------12-14-14h15-14-12--12---------
	/-15-----------------15-12------------------15-----------/
	-----------------------------------------------15-14-12-
	/--------------------------------------------------------/
	--------------------------------------------------------
	/--------------------------------------------------------/

	-----------14----------14----------14-----------------
	/-----15----------15----------15------15-17-15---------/
	---12----12----12----12----12----12----------15p14p12-
	/-14----14----14----14----14----14---------------------/
	------------------------------------------------------
	/------------------------------------------------------/

	-----------14-14h15-14-12--12-----------------------------
	/-----15------------------15С---------------------12-15-12-/
	---12----12-----------------14^-14^-14p12---12-14---------
	/-14----14---------------------------------14--------------/
	----------------------------------------------------------
	/----------------------------------------------------------/

	----------------12-12-2-12-15-14-12---12-15-14-12--------------||
	/--------------15--------------------12------------12-11-12-11-||
	-14-12--12-14--------------------------------------------------||
	/------14-------------------------------------------------------||
	---------------------------------------------------------------||
	/---------------------------------------------------------------||
Добавлено: 25.03.2012
Другие материалы по этой песне:
  • Аккорды и текст

Страница создана 22.02.2012
http://primanota.ru/ozma/rocks-chords.htm
Привет, Гость.
Предлагаем пройти революционный курс по гитаре.
Подарок от PrimaNota.Ru, забирай!