PrimaNota.ru - самый крупный в мире бесплатный архив песенных текстов, аккордов, табулатур и нот


Ozma - Bad Dogs - текст песни, таба, видео

Регистрация Запомнить меня
Войти через:  Facebook Google Twitter Vk Yandex Mail.ru

Ozma - Bad Dogs - текст песни, таба, видео

Печатать
Просмотров: 166
Уроки эстрадного вокала в Санкт-Петербурге
Artist : Ozma
Song   : Bad Dogs
Album  : Spending Time on the Borderline

Tuning: E Standard
Tablature by: Farzan Karimi (karimifarzan@yahoo.com)


#AUTHORS OWN WORK.  Please give proper credit when reposting#

Intro
Repeat 2x
e|-------------------|
B|-------------------|
G|-------------------|
D|-------------------|
A|-10--10/8-13-13/12-|
E|--8---8/6-11-11/10-|

Verse
e|----------------------|
B|----------------------|
G|----------------------|
D|-10--8--6----5--3--13-|
A|-10--8--6----5--3--13-|
E|--8--6--4----3--1--11-|

"Sound the alarms..."
e|---------|-----------------------| |
B|---------|-----------------------| |
G|-13------|-----------------------|2|
D|-11--8-9-|10-xx-10-xx-10-xx-10/8-|x|
A|-11--8-9-|10-xx-10-xx-10-xx-10/8-| |
E|-----6-7-|-8-xx--8-xx--8-xx--8/6-| |

Chorus
Guitar 1
e|------------------------------|
B|------------------------------|
G|-8------12--10--10---7-7-8----|
D|---------------------------10-|
A|------------------------------|
E|------------------------------|

e|---------------------------------|
B|---------------------------------|
G|-8------12--10--10---10-10-12----|
D|------------------------------13-|
A|---------------------------------|
E|---------------------------------|

Solo
e|----------------------------------------------------------------------|
B|----------------------------------------------------------------------|
G|----------------------------------------------------------------------|
D|-10-10-10-10h12-13-13-13-13h15-17-17-17-17p15-20-20-20-20-21-21-21-21-|
A|----------------------------------------------------------------------|
E|----------------------------------------------------------------------|


e|---------------------------------------------------------|
B|---------------------------------------------------------|
G|-17-17-17-17-17-17-17^--/20----17-15----15---------------|
D|-------------------------------------17----18--13-15-15--|
A|---------------------------------------------------------|
E|---------------------------------------------------------|
Добавлено: 14.07.2012
Другие материалы по этой песне:
  • Аккорды и текст

Страница создана 25.04.2012
http://primanota.ru/ozma/bad-dogs-chords.htm
Привет, Гость.
Предлагаем пройти революционный курс по гитаре.
Подарок от PrimaNota.Ru, забирай!