PrimaNota.ru - самый крупный в мире бесплатный архив песенных текстов, аккордов, табулатур и нот


Oysterhead - Rubberneck Lions - текст песни, бас-таба, видео

Регистрация Запомнить меня
Войти через:  Facebook Google Twitter Vk Yandex Mail.ru

Oysterhead - Rubberneck Lions - текст песни, бас-таба, видео

Печатать
Просмотров: 126
Song: Rubberneck Lions
Artist: Oysterhead
Album: The Grand Pecking Order


G------------|---------------|
D----12---10-|-----12-----10-| 5x
A-11----9----|-11-----9-9----|
E------------|---------------|

G------------|-------------12|------------|---------------|
D----12---10-|-----12---10---|----12---10-|-----12-----10-|
A-11----9----|-11-----9------|-11----9----|-11-----9-9----|
E------------|---------------|------------|---------------|

G------------|-/14---11--------|
D----12---10-|----14----12---10|
A-11----9----|-------------9---|
E------------|-----------------|

G------------|---------------|
D----12---10-|-----12-----10-| ?x
A-11----9----|-11-----9-9----|
E------------|---------------| 

G------------|--------15-15-12----------|------------|---------------|
D----12---10-|----12-----------15-12----|----12---10-|-----12-----10-|
A-11----9----|-11--------------------15-|-11----9----|-11-----9-9----|
E------------|--------------------------|------------|---------------|

Chorus:
G-------8-10-|-8-10-8---|--------------|---------|
D-----8------|--------8-|-10----10---10|-8-------|
A------------|----------|----10----10--|---8---8-|
E--11--------|----------|--------------|-----6---|

G------------|-------------12\--|
D------------|----------X-------|
A-10----8----|-10-----X---------|
E----10---8--|----10------------|

G------------|-----------|---8-----|---8---8-|--------------|--------|
D------------|-----------|/8---8-8-|-8---8---|-10----10---10|8---8---|
A-10----8----|-10----8---|---------|---------|----10----10--|--8---8-|
E----10---8--|----10---8/|---------|---------|--------------|--------|

G------------|--------------|
D------------|--------------|
A-11----9----|-11-----9-----|
E----10---8--|-----10----8--|


G------------|---------------|
D----12---10-|-----12-----10-|?x  and even play an
octave lower at some points
A-11----9----|-11-----9-9----|
E------------|---------------|

Okay, thats the first couple minutes w/ variations,
the rest is similar
some other similar variations...   good luck  :)
Добавлено: 08.06.2012
Другие материалы по этой песне:
  • Аккорды и текст

Страница создана 08.06.2012
http://primanota.ru/oysterhead/rubberneck-lions-chords.htm
Привет, Гость.
Предлагаем пройти революционный курс по гитаре.
Подарок от PrimaNota.Ru, забирай!