PrimaNota.ru - самый крупный в мире бесплатный архив песенных текстов, аккордов, табулатур и нот


Owen - Who Found Whose Hair In Whose Bed - таба, видео

Регистрация Запомнить меня
Войти через:  Facebook Google Twitter Vk Yandex Mail.ru

Owen - Who Found Whose Hair In Whose Bed - таба, видео

Печатать
Просмотров: 85
Artist: Owen
Song: Who Found Whose Hair In Whose Bed?
Album: I Do Perceive
Tuning: FADGCE-
capo on 6th fret-tab relative to capo
tabbed at the pv msg board by dean!

Guitar 1
E-----3--------------------------------------------|
C--------2----4—0---------0------------------------|
G-----------0-------(0)—4----0—0h2---0-------------|
D--------------------------------------------------|
A--3-----------------------------------------------|
F----------------------------------------------- 1-|6X

Guitar 2—“I'm usually not one to speak up…”
E------------------------------------------------------------|
C------------------------------------------------------------|
G------------------------------------------------------------|
D—5—5 –--5---5—5----5—5—5------5—5—5- ----- -0---------------|
A—0—3 ----3---0—3----3---0—3-----3---0 –-3- -0h3-------------|
F—0—0—--0---0---0----0—0—0-----0—0---0 ----------------------| 4X

E---------------------------------------------------------|
C-------------0---0---0----0---0---0—(0)------------------|
G-------------2---0---0----0---0---0—(0)------------------|
D—5—5 –--5---5—0----2---5---0---(0)----------0------------|
A—0—3 ----3--3—3----3---3—-3---(3)----0h3-----------------|
F—0---0---------------------------------------------------| 8X

Guitar 1-“Oh and who found whose hair…”
E---------3----|
C------0-------|
G---4----------|
D--------------|
A--------------|
F----------- 1-|6X

Guitar 2-“Oh and who found whose hair…”
E—0----0----0----0-----|
C—0----0----0----0-----|
G—0----0----0----0-----|
D—2----2----2----0-----|
A—3----3----3----2-----|
F—4-----0----2----2----| 2X


Guitar 1
E-3h5p3p0------------------------------------------ 3h5p3p0---------------------------------------|
C------------2p0-2h4p2p0------------------------- ------------2p0-2h4p2p0-------------------------|
G-----------------------------2h5p2p0------------ -----------------------------2h5p2p0----5----4--|
D----------------------------------------2—5—0- ----------------------------------------2---------|
A----------------------------------------------------- -------------------------------------------|
F------------------------------------------------------3X-----------------------------------------|
Middle is a Coda, play the first section 3 times then play the second section once….repeat 4X

Guitar 2
E------------------------------------------------------------------------------------|
C------------------------------------------------------------------------------------|
G------------------------------------------------------------------------------------|
D—5-5—0-0---2-2—5-5—0-0---2-2---3-3—0-0---2-2--3-3—0-0---2-2-------------------------|
A—3-3—3-3---3-3—3-3—3-3---3-3---3-3—3-3---3-3--3-3—3-3---3-3-------------------------|
F—4-4—4-4---4-4—4-4—4-4---4-4----0-0—0-0--0-0---0-0—0-0--0-0-------------------------| 4X

E---0--------------------------0----0------------|
C---0--------------------------0----0------------|
G---0----------------0--------0----0-------------|
D—2---2------2---------2---3----0----------------|
A—3---3---------3---3------2----2----------------|
F—4----0---0----------------3----2---------------| 2X

Guitar 1 comes in early
E---------3---|
C------0------|
G---4---------|
D-------------|
A-------------|
F-------------|

Structure:
Intro Guitar 1
Guitar 2
Chorus
Guitar 1 and 2
Bridge
Guitar 2 Pre Chorus w/ early Guitar 1
Chorus
Outro (Reverse Intro)
Добавлено: 11.04.2012
Другие материалы по этой песне:
  • Аккорды и текст

Страница создана 11.04.2012
http://primanota.ru/owen/who-found-whose-hair-in-whose-bed-chords.htm
Привет, Гость.
Предлагаем пройти революционный курс по гитаре.
Подарок от PrimaNota.Ru, забирай!