PrimaNota.ru - самый крупный в мире бесплатный архив песенных текстов, аккордов, табулатур и нот


Owen - Vivid Dreams - таба, видео

Регистрация Запомнить меня
Войти через:  Facebook Google Twitter Vk Yandex Mail.ru

Owen - Vivid Dreams - таба, видео

Печатать
Просмотров: 93
Уроки эстрадного вокала в Санкт-Петербурге
-------------------------------------------------------------------------------
                            Vidid Dreams - Owen
-------------------------------------------------------------------------------
Tabbed by: Erwin Zakaria
E-mail: erwinzakaria182@gmail.com
Date: June 24, 2015

Tuning: DADGBE capo 1

#BEGIN
E|-----------0-------------------0-------------------0-------------------0----------|
B|-----3-----------3-------3-----------3-------3-----------3-------3-----------3----|
G|---2-----2-----2-------2-----2-----2-------0-----0-----0-------0-----0-----0------|
D|-------0-----------0-------0-----------0-------2-----------2-------2-----------2--|
A|-------------0-------------------0-------------------2-------------------2--------|
D|-0-------------------0-------------------2-------------------2--------------------|

#whole song
E|-----------2p0-------------------0-----------0-------------0-------------------0----------|
B|-----3-------------3-------3-----------3-------------3-----------3-------3-----------3----|
G|---2-----2-------2-------2-----2-----2-----2-------0-----0-----0-------0-----0-----0------|
D|-------0-------------0-------0-----------0-----0-------2-----------2-------2-----------2--|
A|---------------0---------------------------------------------2-------------------2--------|
D|-0---------------------0-----------0-------------2-------------------2--------------------|

How long have I been sleepin'?
Are you sure that I'm not dead?

I saw me as a young man dancing
kickin' up dirt and finishing fights


#emo parts
E|-----------0-----------------------2-----------------------0-----------------------0--------------|
B|-----3-----------3-----3-----3-----------3-----3-----3-----------3-----3-----3-----------3-----3--|
G|---0-----0-----0-----0-----0-----0-----0-----0-----0-----0-----0-----0-----0-----0-----0-----0----|
D|-------4-----------4-----------4-----------4-----------4-----------4-----------4-----------4------|
A|-2-----------2-----------0-----------0-----------------------2-----------------------2------------|
D|-------------------------------------------------2-----------------------2------------------------|

Your sister was there
With all her punk friends

But I couldn't find you


*whole song
How long have I been sleepin'?
I'm a dad and my dad's dead

So much has changed
Even our skies look different


*emo parts
Once I was in love
knee-deep in secrets kept from myself
Life became a lie
Then I woke up

E|-----------2-------0--|
B|-----3-----------3----|
G|---0-----0-----0------|
D|-------5--------------|
A|-------------5--------|
D|-5--------------------|

I'm so glad I found you


E|-----------0-----------------5-----------------------5-----------------------5--------------|
B|-----3-----------3-----3-----------3-----3-----3-----------3-----3-----3-----------3-----3--|
G|---0-----0-----0-----0-----0-----0-----0-----0-----0-----0-----0-----0-----0-----0-----0----|
D|-------4-----------------4-----------4-----------4-----------4-----------4-----------4------|
A|-5-----------5-----------------0-----------------------0-----------------------0------------|
D|-------------------0-----------------------0-----------------------0------------------------|

E|-----------2-----------------------0----------------|
B|-----3-----------3-----3-----3-----------3-----3----|
G|---0-----0-----0-----0-----0-----0-----0-----0------|
D|-------0-----------0-----------4-----------4--------|
A|-3-----------3-----------------------5--------------|
D|-------------------------5-----------------------0--|


************************************

| /   slide up
| \   slide down
| h   hammer-on
| p   pull-off
| ~   vibrato
| +   harmonic
| x   Mute note
| b   Bend
| pb  Pre-bend
| br  Bend release
| pbr Pre-bend release
| brb Bend release bend

************************************
Добавлено: 24.10.2015
Другие материалы по этой песне:
  • Аккорды и текст

Страница создана 24.10.2015
http://primanota.ru/owen/vivid-dreams-chords.htm
Привет, Гость.
Предлагаем пройти революционный курс по гитаре.
Подарок от PrimaNota.Ru, забирай!