PrimaNota.ru - самый крупный в мире бесплатный архив песенных текстов, аккордов, табулатур и нот


Owen - Take Care Of Yourself - текст песни, таба, видео

Регистрация Запомнить меня
Войти через:  Facebook Google Twitter Vk Yandex Mail.ru

Owen - Take Care Of Yourself - текст песни, таба, видео

Печатать
Просмотров: 127
Tuning: Eb Bb Eb G Bb Eb or (EBEG#BE half a step down)
or
D A D F# A D capo 1 (I think thats right)

[riff 1]
eb|--------------------------------------------|
Bb|------0-------------------------------------|
G|-------3--------0-1-0-----------------0-1-0--|
Eb|--0---0----------------change------2-------2|
Bb|--0---------2--------------------2----------|
Eb|--0-------2--------------------2------------|
[you can hit the other open notes too and it'll sound fine)

[riff 2]
eb|--0-0-0-------0--0---------------------------|
Bb|--4-5-7-------0--0---------------------------|
G|---0-0-0-----0-5--3-----------------0-1-0-----|
Eb|--0-0-0-------0--0----then------2--------2---|
Bb|--0-0-0---2-------------------2--------------|
Eb|--0-0-0-2-------------------2----------------|

[riff 3]
eb|---------------0------0------0------0-------0--------0------------0-----|
Bb|--------0----------0-----------0-------0-------0--------0----0------0---|
G|-------1------0-----------0--------0-------0--------0------0----0--------|
Eb|----0-------------0----------0--------0---------0-----------------------|
Bb|--3----------------------------------------------------0-----4----0---5-|
Eb|-----------5-----------0----------5---------0---------------------------|

[guitar 2]
eb|--7---------7----|
Bb|-----7----7---7--|
G|---------8--------|
Eb|-----------------|
Bb|-----------------|
Eb|-----------------|

[riff 4]
eb|-----0--------------0--12*---12*----|
Bb|--------0-----------0---------------|
G|----0--------1--0----0---------------|
Eb|-----------------2--0---------------|
Bb|---------2----------0---------------|
Eb|--4---5-------------0---------------|

[riff 5] (the electric solo)
eb|-----------------------------------------------------------------------|
Bb|--0---------0----------------------------------------------------------|
G|------1-0-1-------------------------------------------------------------|
Eb|--------------0-0h2-4--h4\2p0---------------------------4-5-4-2--------|
Bb|------------------------------4-5-0--h2p0h2------2-4-5----------5-4-5--|
Eb|--------------------------------------------0--0-----------------------|

eb|------------0----|
Bb|----------0------|
G|---------0--------|
Eb|------0----------|
Bb|-0--0------------|
Eb|-----------------|
Добавлено: 12.04.2012
Другие материалы по этой песне:
  • Аккорды и текст

Страница создана 10.04.2012
http://primanota.ru/owen/take-care-of-yourself-chords.htm
Привет, Гость.
Предлагаем пройти революционный курс по гитаре.
Подарок от PrimaNota.Ru, забирай!