PrimaNota.ru - самый крупный в мире бесплатный архив песенных текстов, аккордов, табулатур и нот


Owen - Poor Souls - текст песни, таба, видео

Регистрация Запомнить меня
Войти через:  Facebook Google Twitter Vk Yandex Mail.ru

Owen - Poor Souls - текст песни, таба, видео

Печатать
Просмотров: 128
"Poor Souls"
By: Owen(Mike "the god among men" Kinsella)
Tuning: EBEG#Be
Capo: 2nd Fret

This is, I'm sure, 99% if not 100% correct but, 
if you have any questions, you can email me at: pedro_the_lion_@hotmail.com

------------------------------------------------------------------- 

Riff 1*(intro/main riff of song)

-"Long night. Last call..."

|--------------------------0-----|
|------------------------------0-|
|--------0---1-0-------------5---|
|------2---2-----0-----0---------|
|----0-------------0-----0-------|
|--0-----------------5-----------|

-------------------------------------------------------------------                        
Riff 2*

-This is the same as Riff 1, except the last 3 notes are different.
-He plays this about once out of every 4 bars or so.
-But just listen to the song to know when to use this riff instead of Riff 1.

|--------------------------0-2-4-|
|--------------------------------|
|--------0---1-0-----------------|
|------2---2-----0-----0---------|
|----0-------------0-----0-------|
|--0-----------------5-----------|

---------------------------------------------------------------------
Riff3*

-This riff is also the same as riff 1, but the ending is slightly different.
-It is played for one bar right after Mike finishes singing:
-"You, in love with the cocteau twins, you're bored with your boyfriend."

|--------------------------0-----------------|
|--------------------------------0-----------|
|--------0---1-0-------------1-----1-0h1-----|
|------2---2-----0-----0-------0---------2-0-|
|----0-------------0-----0-------------------|
|--0-----------------5-----------------------|

---------------------------------------------------------------------
Riff4* (bridge or something)

-This is the riff he comes into right after Riff 3 is played for one bar.

|--------------------------------------------------|
|-----------0-----------------------0--------------|
|-----1-0---------0--------------------------------|
|---0-----0-----0---2---0-----0-----------0--------|
|---------------------4-----0---0-----0-----0------|
|-2-----------4-----------5-------5-----5-----5-0--|


---------------------------------------------------------------------
Riff 1* (outro)

-Riff 4 transitions back into riff 1 the bar right after Mike finisings singing:
-"Now Which one of you, poor souls, wants to drive me home?"

|--------------------------0-----|
|------------------------------0-|
|--------0---1-0-------------5---|
|------2---2-----0-----0---------|
|----0-------------0-----0-------|
|--0-----------------5-----------|
Добавлено: 18.03.2012
Другие материалы по этой песне:
  • Аккорды и текст

Страница создана 18.03.2012
http://primanota.ru/owen/poor-souls-chords.htm
Привет, Гость.
Предлагаем пройти революционный курс по гитаре.
Подарок от PrimaNota.Ru, забирай!