PrimaNota.ru - самый крупный в мире бесплатный архив песенных текстов, аккордов, табулатур и нот


Owen - One Of These Days - текст песни, таба, видео

Регистрация Запомнить меня
Войти через:  Facebook Google Twitter Vk Yandex Mail.ru

Owen - One Of These Days - текст песни, таба, видео

Печатать
Просмотров: 99
Tuning: DGDF#AD with capo 4

Intro/Verse
[Guitar 1}
D-----------------------------0--------------------------------|
A-------------0-----------------------------0------------------|
F#------0h1-----------0h1------------0h1-------------0h1p0-----|
D-----0-------------0--------------0---------------0-----------|
G--------------------------------------------------------------|
D—0-----------0---------------0--------------0-----------------|

D-----------------------------0--------------------------------|
A-------------0-----------------------------0------------------|
F#------0h1-----------0h1-----------0h1-------------0h1p0------|
D-----0-------------0--------------0---------------0-----------|
G---0-------------0--------------0---------------0-------------|
D--------------------------------------------------------------|

[Guitar 2] The riff played in the intro.
D|--------------------------------------------------------|
A|--------------------------------------------------------|
F#|--3-3--1-1--0-0----------------------------------------|
D|--4-4--2-2--0-0--2-2--4-4--2-2--4-4--2---2-4-2-----x2---|
G|-----------------0-0--2-2--0-0--2-2--0------------------|
D|--------------------------------------------------------|

D---------------------------------------------------------|
A—--0------------0------------0------------0--------------|
F#-----1p0---------1p0----------1p0----------0h1p0--------|
D-----------2-----------2------------2--------------2-----|
G—--2------------2----------2------------2----------------|
D---------------------------------------------------------|

D----------------------------------------------------------|
A—--0-----------0------------0----------0--------0---------|
F#-----1p0---------1p0---------1p0--------1p0-------1p0----|
D-----------0------------0----------0----------0---------2-|
G—--0-----------0------------0--------2--------------------|
D----------------------------------------------------------|

D---------------------------------------------------------|
A—--0------------0------------0------------0--------------|
F#-----1p0---------1p0----------1p0----------0h1p0--------|
D-----------2-----------2------------2--------------2-----|
G—--2------------2----------2------------2----------------|
D---------------------------------------------------------|

D----------------------------------------------------------|
A—--0-----------0------------0----------0--------0---------|
F#-----1p0---------1p0---------1p0--------1p0-------1p0----|
D-----------0------------0----------0----------0---------2-|
G—--0-----------0------------0--------2--------------------|
D----------------------------------------------------------|

[Guitar 2] for the second part of the verse
D|----------0---------------------------0--------------------|
A|--------4---4-----------------------4---4------------------|
F#|------3-------3--3/5-5-3--0--------3------3/5--5-3-0------|
D|----0-----------------------0----0-------------------2-0---|
G|--0----------------------------0-------------------------0-|
D|-----------------------------------------------------------|

Bridge:
D----------------------------------------------------------|
A-----0-------------0-----------0--------------------------|
F#--0----------------------0-----0-------------------------|
D-4---2--0---0-h2/4---0---0-0-------0-h2/4-2--0------------|
G—4---2------0—---------------------0—0----2-----6--2------|
D-------------------4---2----4-----------------------------|
Добавлено: 10.04.2012
Другие материалы по этой песне:
  • Аккорды и текст

Страница создана 10.04.2012
http://primanota.ru/owen/one-of-these-days-chords.htm
Привет, Гость.
Предлагаем пройти революционный курс по гитаре.
Подарок от PrimaNota.Ru, забирай!