PrimaNota.ru - самый крупный в мире бесплатный архив песенных текстов, аккордов, табулатур и нот


Owen - Good Friends With Bad Habits - таба, видео

Регистрация Запомнить меня
Войти через:  Facebook Google Twitter Vk Yandex Mail.ru

Owen - Good Friends With Bad Habits - таба, видео

Печатать
Просмотров: 105
thx to the Joanfrc.com forums ppl
Good Friends Bad Habits

1=D 4=E
2=B 5=A
3=G 6=C    

(Capo 6)

           Good friends with bad habits...
D||--------------|--0-----------------------|--------------------------|
B||--------0--1--|-----1--0--------------0--|--------------------0--1--|
G||-----0--------|-----------0--2--0--2-----|-----------0-----0--------|
E||--------------|--------------------------|--0-----0-----------------|
A||--0-----------|--------------------------|-----5--------0-----------|
C||--------------|--4-----------2-----------|--0-----------------------|


--0-----------------------|--------------------------|
-----1--0--------------0--|--------------------0--1--|
-----------0--2--0--2-----|-----------0-----0--------|
--------------------------|--0-----0-----------------|
--------------------------|-----5--------0-----------|
--4-----------2-----------|--0-----------------------|

                                           
--0-----------------------|----------------...
-----1--0--------------0--|----------------...
-----------0--2--0--2-----|-------------0--...
--------------------------|--0-------0-----...
--------------------------|----5-2-5-------...
--4-----------2-----------|--0-------------...




...and indulge like Hemingway...
--------------------------|
-----------------------0--|
-----------0--------------|
--0-----0-----------0-----|
-----5-----------5--------|
--0-----------0-----------|


  
--------------------------|-----------------------0--|
--------------------------|-----------------------0--|
-----------0-----------0--|-----------0--------------|
--------0-----2-----2-----|--0-----0-----------0-----|
-----5-----------5--------|-----5-----------5--------|
--0-----------2-----------|--0-----------0-----------|


--------------------------|
--------------------------|
-----------0--------------|
--------0-----2-----------|
-----5--------------------|
--0-----------2-----------|




well sometimes, like every time...
--------------------------|-----------0--------------|---------------------|
-----------0--------------|-----0--------------------|---------------------|
--2--0--2-----2-----2--0--|--2-----2--------------0--|---------------------|
--------------------------|--------------2-----2-----|--2------------------|
-----------------5--------|-----------------5--------|-----5--2------------|
--3-----------------------|--------------2-----------|---------------------|



I get jealous of the long nights...
--------------------0-----|
--------------------------|
-----------0--------------|
--0-----0-----0-----------|
-----5-----------5-----5--|
--4-----------------------|


--------------------------|--------0-----------------|
-----0--------------------|-----------------0--------|
-----------------------0--|--------------------------|
--0-----0-----0-----0-----|--0-----------0-----0-----|
-----------5-----5--------|-----5-----5-----------5--|
--------------0-----------|--------------------------|


--------------------0-----|--------------------------|
--------------------------|-----0--------------------|
-----------0--------------|-----------------------0--|
--0-----0-----0-----------|--0-----0-----2-----2-----|
-----5-----------5-----5--|-----------5-----5--------|
--4-----------------------|--------------2-----------|


--------0-----------------|--------------------0-----|...
-----------------0--------|--------------------------|...
--------------------------|-----------0--------------|...
--2-----------2-----2-----|--0-----0-----0-----------|...
-----5-----5-----------5--|-----5-----------5-----5--|...
--------------------------|--0-----------------------|...


Lead Guitar Verse 
-----------2---0------|--------0---------------|
-------------------1--|--0--1---------------0--|
----------------------|-----------0------2-----|
----------------------|------------------------|
----------------------|------------------------|
----------------------|------------------------|



“Solo”
-------2--0-----0--L----|--2--0-------------2--0--|-----0--L----2--0--------|
-------------0----------|--------0----------------|--0----------------0-----|
------------------------|-----------2--L----------|----------------------0--|
------------------------|-------------------------|-------------------------|
------------------------|-------------------------|-------------------------|
------------------------|-------------------------|-------------------------|



--------2--0-----0----L--|--2--0-------------2--0--|-----0--L----2--0--------|
--------------0----------|--------0----------------|--0----------------0--1--|
-----0-------------------|-----------2--L----------|-------------------------|
--0----------------------|-------------------------|-------------------------|
-------------------------|-------------------------|-------------------------|
-------------------------|-------------------------|-------------------------|


-------------------------|-----------------2--0--|-----0--L----2--0--------|
--L--0-----------0--1----|--L----0--L------------|--0----------------0-----|
--------0-----0----------|-----------------------|----------------------2--|
-----------0-------------|-----------------------|-------------------------|
-------------------------|-----------------------|-------------------------|
-------------------------|-----------------------|-------------------------|


-----------------------|
-------0---------------|
--L-------0--L----L----|
-----------------------|
-----------------------|
-----------------------|



Lead Guitar End Part (Fade In)
-------2--0------2-----|-------2--0-------------|
--------------------0--|--L------------------0--|
-----------------------|------------------------|
-----------------------|------------------0-----|
-----------------------|---------------5--------|
-----------------------|------------------------|



Tablature Legend
----------------
L - tied note
Добавлено: 16.07.2012
Другие материалы по этой песне:
  • Аккорды и текст

Страница создана 16.07.2012
http://primanota.ru/owen/good-friends-with-bad-habits-chords.htm
Привет, Гость.
Предлагаем пройти революционный курс по гитаре.
Подарок от PrimaNota.Ru, забирай!