PrimaNota.ru - самый крупный в мире бесплатный архив песенных текстов, аккордов, табулатур и нот


Owen - Good Deeds - текст песни, таба, видео

Регистрация Запомнить меня
Войти через:  Facebook Google Twitter Vk Yandex Mail.ru

Owen - Good Deeds - текст песни, таба, видео

Печатать
Просмотров: 155
Tuning: Eb Bb Eb G Bb Eb (Xapo 2)
or D A D F# A D (Capo 3)

[riff 1]
eb|------------0---------------------2--4-------0------------------------|
Bb|---------------------0----------0-----------0-------0---0-------------|
G|---------0----------0----------0-----------0-------0---5--------0----0-|
Eb|-----0-----------0-----x9---0-----------0-------0------------0----5---|
Bb|--------------------------1-----------2---------------------0---------|
Eb|-0------------0--------------------------------5----------5-----------|

eB|---------------------0------0-----------0------------------0---------|
Bb|----------------4--------2----------------------0--------4---4-------|
G|------------------3---------3---------0--------0--------3--------3----|
Eb|--change:--------------------4-----0--------0--------0------------0--|
Bb|-----------0------------0---------------------------0----------------|
Eb|--------------------------------0---------0-------0------------------|

eb|------------0---------------------0---------2-4----0-----------------|
Bb|---------------------0--------------------0---------------0--------0-|
G|---------0----------0----------0---------0--------0-------0-------1---|
Eb|-----0-----------0----------0---------0---------0------0-------0-----|
Bb|------------------------------------1----------2-----2-------3-------|
Eb|-0------------0-----------0------------------------------------------|

eb|--0------------------0-------4----|
Bb|----0--------------0---0----------|
G|-------1----------0-------1--------|
Eb|--------0------0-----------0------|
Bb|----------------------------------|
Eb|------------0---------------------|

[riff 2]
eb|-2------------------------------------------------0-------|
Bb|-0-----------0--------------------0-----------------------|
G|--0---------0---------0-1--------0---------0h1p0-----------|
Eb|-0-------0---------0----------0---------0------h2---------|
Bb|-0--------------------------------------------------------|
Eb|-0----5---------2----------5---------2--------------------|

eb|--------------------------------------------------------|
Bb|---------0----------------------------------------------|
G|--------0----------0-1-0---------------------------------|
Eb|------0---------0-------2------back to main riff--------|
Bb|----------------------------4---------------------------|
Eb|---5---------2--------------7---------------------------|

[riff 3]
eb|-------------------|
Bb|-------------------|
G|--------------------|
Eb|-------------------|
Bb|-5--4--5--4--5--4--|
Eb|-7--7--7--7--7--7--|
Добавлено: 26.05.2012
Другие материалы по этой песне:
  • Аккорды и текст

Страница создана 14.05.2012
http://primanota.ru/owen/good-deeds-chords.htm
Привет, Гость.
Предлагаем пройти революционный курс по гитаре.
Подарок от PrimaNota.Ru, забирай!