PrimaNota.ru - самый крупный в мире бесплатный архив песенных текстов, аккордов, табулатур и нот


Owen - Everyones Asleep In The House But Me - таба, видео

Регистрация Запомнить меня
Войти через:  Facebook Google Twitter Vk Yandex Mail.ru

Owen - Everyones Asleep In The House But Me - таба, видео

Печатать
Просмотров: 93
------------------------------------------------------------------
         Everyone's Asleep In The House But Me - Owen
------------------------------------------------------------------
Tabbed by: (Inthe)atlasposition
www.youtube.com/intheatlasposition

Tuning: DADEAC# (Capo 4)
[Intro/Verse]
|-----------------------------|--0--|
|-------------------------(0)-|--3^-|
|-------------------------(0)-|-----|
|---------------2-------------|-----|
|-------2h4p2p0---------------|-----|
|--2-4---------------2-0------|-----|
Everyone's asleep in the house but me.
They've long since caved in to the promise of dreams.
Everyone's asleep. Suspending reality.
Trying to walk a straight line, but it's so hard with these crossed eyes.
|----------------------------|--0----------0------------------|
|-------------------------0--|----2----------0----------------|
|-------------------------0--|------------------------0-------|  X2
|---------------2------------|----------2-----------0---------|
|-------2h4p2p0--------------|--------------------4------0-0--|
|--2-4---------------2-0-----|-------2----------4--------0----|
[Verse]
|----------------------------|
|-------------------------0--|
|-------------------------0--|
|---------------2------------|
|-------2h4p2p0--------------|
|--2-4---------------2-0-----|
Everyone's asleep while I wrestle with the heat.
This aging sweat stained silhouette knows that the deviant in me...
|-------------------------|--0---------0-------------------|
|-------------------------|----2---------0-----------------|
|-------------------------|------------------------0-------|
|---------------2---------|---------2------------0---------|
|-------2h4p2p0-----------|--------------------4------0-0--|
|--2-4---------------2-0--|-------2----------4--------0----|
                                           ...Wants to go out.          
                                           I've a thirst for skirts and hell to raise.
                                           Won't someone sing into my mouth?
                                           And I'll do the same...
|---------------------|---------0---------------------------------------|
|---------------------|---0-------0----0--------------------------------|
|---------------------|------0-------4----------------------------------|
|--2------------------|------------------------2----2-------------------|
|--2-2h4p2----------0-|---0-----------------0-------2-2h4p2-------------|
|--2----------6/7-0---|---------------------0-------2----------6/7--0---|
                                       Killing time in a ghost town. 
|--------0-------------------------------------------|
|--0-------0----0-----------------0------------------|
|-----0-------4---------------4------4-------2-------|
|--------------------------------2-----2-------2-----|
|--0--------------------0------------------------0---|
|---------------------0-------2--------------0-------|
Dim lights and dull sounds. Well this is what it's like...
|--------0------------------------------|-------0-------------|------|
|--0-------0----0-----------------------|--0------0---0-------|------|
|-----0-------4-------------------------|-----0-----4---------|------|
|--------------------2--2---------------|------------------2--|--2---|
|--0--------------0-----2-2h4p2-------0-|--0-------------0----|--2---|
|-----------------0-----2-------6/7--0--|----------------0----|--2---|
...To be dead...                        ...and leave behind no more than a stain on the carpet

|------------------------0--|
|-----------------------^3--|
|---------------------------|
|---------------2-----------|
|-------2h4p2p0-----0-------|
|--2-4------------2-0-------|
Добавлено: 17.11.2013
Другие материалы по этой песне:
  • Аккорды и текст

Страница создана 17.11.2013
http://primanota.ru/owen/everyones-asleep-in-the-house-but-me-chords.htm
Привет, Гость.
Предлагаем пройти революционный курс по гитаре.
Подарок от PrimaNota.Ru, забирай!