PrimaNota.ru - самый крупный в мире бесплатный архив песенных текстов, аккордов, табулатур и нот


Owen - Broken Bones - таба, видео

Регистрация Запомнить меня
Войти через:  Facebook Google Twitter Vk Yandex Mail.ru

Owen - Broken Bones - таба, видео

Печатать
Просмотров: 132
Уроки эстрадного вокала в Санкт-Петербурге
Tuning: FACGCE - Capo 2


Intro: 
E----------------------------------------------------------------------|
C----------------------------------------------------------------------|
G----------------------------------------------------------------------|
C----0----------------------2-------4-------2--------------------------| 4x
A----0h3p5p3p5p3p0----------2-------3-------2--------------------------|
F----------------------0h2-------4-------2-----------------------------|


Verse:
E----------------------------------------------------------------------|
C----------------------------------------------------------------------|
G----------------------------------------------------------------------|
C----0----------------------2-------4-------2--------------------------| 
A----0h3p5p3p5p3p0----------2-------3-------2--------------------------|
F----------------------0h2-------4-------2-----------------------------|

E----------------------------------------------------------------------|
C----------------------------------------------------------------------|
G----------------------------------------------------------------------|
C----0----------------------2-------4-------7--------------------------| 2x
A----0h3p5p3p5p3p0----------2-------3-------7--------------------------|
F----------------------0h2-------4-------7-----------------------------|


Interlude:
E--------0-----------------------------------------0-------------------|
C------------0----0--------------------------------0-------0-----------|
G-----------7---4---0------------------------------0------4-0----------|
C------0-------------------5p4p5/7/4--0h2h0--------4-----4-----5-4-----|
A----------5----0----------0----------------0h3----3----3----------5---|
F----0-----------------0--------------0------------------------2-------|


Verse again


Chorus: ("You and me, an x-ray machine...")
E----------------------------------------------------------------------|
C----------------------------------------------------------------------|
G---------12-------9---------12-------5---------12-------9-------------|
C-------12--------7--------12--------4--------12--------7--------------|
A-----10---------7-------10---------3-------10---------7---------------|
F----0----------7-------0----------4-------0----------7----------------|

("I Swear that day...)
E----------------------------------------------------------------------|
C--------0--------0----------------------------------------------------|
G-------4--------4-----------------------------------------------------|
C------4--------2------------------------------------------------------| 1x
A-----3--------2-------------------------------------------------------|
F----4--------2--------------------------------------------------------|

(...through me")
E----------------------------------------------------------------------|
C----------------------------------------------------------------------|
G---------12-------9---------12-------5---------12-------9-------------|
C-------12--------7--------12--------4--------12--------7--------------|
A-----10---------7-------10---------3-------10---------7---------------|
F----0----------7-------0----------4-------0----------7----------------|

E------------0---------------------------------------------------------|
C-----------------0-------------0--------------------------------------|
G-------10-----10-----------7------7-----------------------------------|
C------9------9------------5------5---9--------------------------------| 1x
A-----8----8--------------5---5----------------------------------------|
F----9------------9------5------------5--------------------------------|



verse again


chorus with outro
(...were ours...")
E---------------------------------------------------------------------|
C---------------------------------------------------------------------|
G---------12-------9---------12-------5---------12-------9------------|
C-------12--------7--------12--------4--------12--------7-------------|
A-----10---------7-------10---------3-------10---------7--------------|
F----0----------7-------0----------4-------0----------7---------------|

E------------0--------------------------------------------------------|
C-----------------0-------------0--------------0----------------------|
G-------10-----10-----------7------7----------4-----0-----------------|
C------9------9------------5------5---9------4---4-----5-4-----0------| 1x
A-----8----8--------------5---5-------------3---------------2---------|
F----9------------9------5------------5----4--------2----------0------|
Добавлено: 13.03.2012
Другие материалы по этой песне:
  • Аккорды и текст

Страница создана 13.03.2012
http://primanota.ru/owen/broken-bones-chords.htm
Привет, Гость.
Предлагаем пройти революционный курс по гитаре.
Подарок от PrimaNota.Ru, забирай!