PrimaNota.ru - самый крупный в мире бесплатный архив песенных текстов, аккордов, табулатур и нот


Owen Campbell - Sunshine Road - таба, видео

Регистрация Запомнить меня
Войти через:  Facebook Google Twitter Vk Yandex Mail.ru

Owen Campbell - Sunshine Road - таба, видео

Печатать
Просмотров: 390
Capo on 4th
Use a Slider.
Owen uses a shot glass for his slider and I also do the same, so if available,
just use a shot glass if you don't have a proper bottleneck.

Tuning: DADF#AD

MAIN MELODY
D |--------0-------------------------------------------0---------|
A |--------------------------------------------------------------|
F#|--------------------------------------------------------------|
D |--------0------10/^0----0----14/15-----0------------3---------|
A |--------------------------------------------------------------|
D |--0-----------------------------------------0-----------------|

BRIDGE (repeat twice
D |-----------------------------------------------------------|
A |-----------------------------------------------------------|
F#|-----------------------------------------------------------|
D |-----5/7-----7------7-7-----7------------------------------|
A |-----5/7-----7------7-7-----7------------------------------|
D |-----5/7-----7------7-7-----7------------------------------|

D |-----------------------------------------------------------|
A |-----------------------------------------------------------|
F#|-----------------------------------------------------------|
D |-----3/5-----5------5-5-----5------------------------------|
A |-----3/5-----5------5-5-----5------------------------------|
D |-----3/5-----5------5-5-----5------------------------------|

(On 2nd time)
D |-----------------------------------------------------------|
A |-----------------------------------------------------------|
F#|-----------------------------------------------------------|
D |-----3/5-----5------5/3------3-----------------------------|
A |-----3/5-----5------5/3------3-----------------------------|
D |-----3/5-----5------5/3------3-----------------------------|

First Tab.
Be Kind c:

/^ = Small slide/flick up to open string
/ = Slide
Добавлено: 27.07.2013
Вам также может быть интересно:
Другие материалы по этой песне:
  • Аккорды и текст

Страница создана 27.07.2013
http://primanota.ru/owen-campbell/sunshine-road-chords.htm
Привет, Гость.
Предлагаем пройти революционный курс по гитаре.
Подарок от PrimaNota.Ru, забирай!