PrimaNota.ru - самый крупный в мире бесплатный архив песенных текстов, аккордов, табулатур и нот


Ovlov - Where's My Dini? - таба, видео

Регистрация Запомнить меня
Войти через:  Facebook Google Twitter Vk Yandex Mail.ru

Ovlov - Where's My Dini? - таба, видео

Печатать
Просмотров: 73
-------------------------------------------------------------------------------
                             SONG NAME - Band Name
-------------------------------------------------------------------------------
Tabbed by:
E-mail:

Tuning:

e|---------------------------------------------------------------------------|
B|------------------------------5---------5-/-7------------------------------|
G|--------6-----------6---------6---------6-/-7------------------------------|
D|--------4-----------4------4---------4-------------------------------------|
A|-----5-----------5------2--------------------------------------------------|
E|--0-----------0-------------------2----------------------------------------|

e
e|------------------------------------------------------------------------------------|
B|------------------------------------------------------------------------------------|
G|---4-5-6-5-4-6----------------------------------------------------------------------|
D|-0-4-5-6-5-4-6----------------------------------------------------------------------|
A|-0-2-3-4-3-2-4----------------------------------------------------------------------|
E|-0----------------------------------------------------------------------------------|


************************************

| /   slide up
| \   slide down
| h   hammer-on
| p   pull-off
| ~   vibrato
| +   harmonic
| x   Mute note
| b   Bend
| pb  Pre-bend
| br  Bend release
| pbr Pre-bend release
| brb Bend release bend

************************************
Добавлено: 29.08.2014
Другие материалы по этой песне:
  • Аккорды и текст

Страница создана 29.08.2014
http://primanota.ru/ovlov/wheres-my-dini-chords.htm
Привет, Гость.
Предлагаем пройти революционный курс по гитаре.
Подарок от PrimaNota.Ru, забирай!