PrimaNota.ru - самый крупный в мире бесплатный архив песенных текстов, аккордов, табулатур и нот


Ovlov - The Great Alligator - таба, видео

Регистрация Запомнить меня
Войти через:  Facebook Google Twitter Vk Yandex Mail.ru

Ovlov - The Great Alligator - таба, видео

Печатать
Просмотров: 43
-------------------------------------------------------------------------------
                        The Great Alligator - Ovlov
-------------------------------------------------------------------------------

Tuning: Standard

verse:
e|--0--0--0-0-0--0--------0--------------------------------------------------|
B|--3--3--3-3-3--2-----------------------------------------------------------|
G|--2--2--2-2-2--2--2--4-----4--4--4-4-4--4--2--4--2-------------------------|
D|--0--0--0-0-0--0-----------4--4--4-4-4--4----------------------------------|
A|---------------------------2--2--2-2-2--2----------------------------------|
E|---------------------------------------------------------------------------|

chorus:
e|--0-0-0-0---------------------------------0-0-0-0--------------------------|
B|--2-2-2-2---------------------------------2-2-2-2--------------------------|
G|--3-3-3-3-2-2-2-2---------2-2-2-2---------3-3-3-3--------------------------|
D|--0-0-0-0-2-2-2-2-5-5-5-5-2-2-2-2-5-5-5-5-0-0-0-0-5-5-5-5-7-7-7-7----------|
A|----------0-0-0-0-5-5-5-5-0-0-0-0-5-5-5-5---------5-5-5-5-7-7-7-7----------|
E|------------------3-3-3-3---------3-3-3-3---------3-3-3-3-5-5-5-5----------|

e|--------------0-0-0-0-0-0--------------------------------------------------|
B|--------------3-3-3-3-3-3--------------------------------------------------|
G|--------------2-2-2-2-2-2--------------------------------------------------|
D|--2-2-2-2-2-2-0-0-0-0-0-0-5-5-5-5-5-5-7-7-7-7-7-7--------------------------|
A|--2-2-2-2-2-2-------------5-5-5-5-5-5-7-7-7-7-7-7--------------------------| 3x
E|--0-0-0-0-0-0-------------3-3-3-3-3-3-5-5-5-5-5-5--------------------------|

Beginning of the solo:

e|---------------------------------------------------------------------------|
B|---------------------------------------------------------------------------|
G|--9-----------9--6-----------6---------------9--6--------------------------|
D|--------7--9-----------7--9-----9------7--9--------------------------------|
A|---------------------------------------------------------------------------|
E|---------------------------------------------------------------------------|

lyrics (most of these are total guesses):

You we're on our way
Be there today
And there we'll stay
Feel you understand
I'll take this sand
Bury your hand

Take time, almost that you are
Make fine, sell the way you are
Wait a while, for you
Gator jaws, for two
And I feel the rain high

Please, don't sing this wrong
This is your song
Don't think too long
Here, already five
So take your time
Just clear your mind

Take time, almost that you are
Make fine, sell the way you are
Take a mile, or two
Gator jaws, to you
And I feel the rain high
There need be a wine
There are meals for all time
Добавлено: 25.11.2015
Другие материалы по этой песне:
  • Аккорды и текст

Страница создана 25.11.2015
http://primanota.ru/ovlov/great-alligator-chords.htm
Привет, Гость.
Предлагаем пройти революционный курс по гитаре.
Подарок от PrimaNota.Ru, забирай!