PrimaNota.ru - самый крупный в мире бесплатный архив песенных текстов, аккордов, табулатур и нот


Overseer - Stompbox - таба, видео

Регистрация Запомнить меня
Войти через:  Facebook Google Twitter Vk Yandex Mail.ru

Overseer - Stompbox - таба, видео

Печатать
Просмотров: 146
Artist: Overseer
Song: Stompbox
Album: Wreckage
Tuning: Drop D

Not sure about these lyrics... I got them off a website, they're that hard to make out 
could be anything. Listen to the song and this should make sense. Im at 
for comments.

|-----------------------------------------|
|-----------------------------------------|
|-----------------------------------------| x4 muted
|--9--9--8--8--6---4--6---6--4--6---4--6--|
|--9--9--8--8--6---4--6---6--4--6---4--6--|
|--9--9--8--8--6---4--6---6--4--6---4--6--|
             (G#5)
|-----------------------------------------|
|-----------------------------------------|
|-----------------------------------------| x4
|--9--9--8--8--6---4--6---6--4--6---4--6--|
|--9--9--8--8--6---4--6---6--4--6---4--6--|
|--9--9--8--8--6---4--6---6--4--6---4--6--|

(G#5)Heavily metal hip rock incredible
(G#5)Heavily metal hip rock incredible
(G#5)Heavily metal hip rock incredible
(G#5)Heavily metal hip rock incredible

|----------------------|
|----------------------|
|----------------------| x15 muted
|--6--9--6--9--6----6--|
|--6--9--6--9--6----6--|
|--6--9--6--9--6----6--|

Rock incredible

|-----------------------------------------|
|-----------------------------------------|
|-----------------------------------------| x4
|--9--9--8--8--6---4--6---6--4--6---4--6--|
|--9--9--8--8--6---4--6---6--4--6---4--6--|
|--9--9--8--8--6---4--6---6--4--6---4--6--|

     Heavily metal hip rock incredible
|-----------------------------------------|
|-----------------------------------------|
|-----------------------------------------| x4 muted
|--9--9--8--8--6---4--6---6--4--6---4--6--|
|--9--9--8--8--6---4--6---6--4--6---4--6--|
|--9--9--8--8--6---4--6---6--4--6---4--6--|

|----------------------|
|----------------------|
|----------------------| x7 muted
|--6--9--6--9--6----6--|
|--6--9--6--9--6----6--|
|--6--9--6--9--6----6--|

G#5 let ring

|---------------------|
|---------------------|
|---------------------| x8 muted
|--6--6----6--6----6--|
|--6--6----6--6----6--|
|--6--6----6--6----6--|

Gtr 1
|---------------------|
|---------------------|
|---------------------| x8 muted
|--6--6----6--6----6--|
|--6--6----6--6----6--|
|--6--6----6--6----6--|

Gtr 2
|--------------------|         |-----------------------|
|------7---9-----7---|         |------7---9---11---12--|
|--------------------| x3 then |-----------------------|
|--6-----------------|         |--6--------------------|
|--------------------|         |-----------------------|
|--------------------|         |-----------------------|

Gtr 1
|--------|
|--------|
|--------| x4 muted
|--6--6--|
|--6--6--|
|--6--6--|

Gtr 2
|--------------------|         |-----------------------|
|------7---9-----7---|         |------7---9---11---12--|
|--------------------| x3 then |-----------------------|
|--6-----------------|         |--6--------------------|
|--------------------|         |-----------------------|
|--------------------|         |-----------------------|

|-----------------------------------------|
|-----------------------------------------|
|-----------------------------------------| x4
|--9--9--8--8--6---4--6---6--4--6---4--6--|
|--9--9--8--8--6---4--6---6--4--6---4--6--|
|--9--9--8--8--6---4--6---6--4--6---4--6--|

Then a bass plays a riff the same as the 1 above (only not as power chords) 8 times with 
words over the top:

I'm the ill destuctor, hi-fi combuster
Motorheaded speakerfreak the block-rock doctor
I'm the ill destuctor, hi-fi combuster
Motorheaded speakerfreak the block-rock doctor

Gtr 1
         Hip rock!
|------------------|
|------------------|
|------------------| x4 muted
|--6--6------------|
|--6--6------------|
|--6--6------------|

         Rock!  Rock!
|--------------------|
|--------------------|
|--------------------| x3 muted
|--6--6--------------|
|--6--6--------------|
|--6--6--------------|

|-----------------------------------------|
|-----------------------------------------|
|-----------------------------------------| x8 with these words over
|--9--9--8--8--6---4--6---6--4--6---4--6--|    the top:
|--9--9--8--8--6---4--6---6--4--6---4--6--|
|--9--9--8--8--6---4--6---6--4--6---4--6--|

I'm the ill destuctor, hi-fi combuster
Motorheaded speakerfreak the block-rock doctor
I'm the ill destuctor, hi-fi combuster
Motorheaded speakerfreak the block-rock doctor
I'm the ill destuctor, hi-fi combuster
Motorheaded speakerfreak the block-rock doctor
I'm the ill destuctor, hi-fi combuster
Motorheaded speakerfreak the block-rock doctor

Then finally end with:
|-------|
|-------|
|-------|
|--9--|
|--9--|
|--9--|

Hope that made sense. Listen to the song and you should figure it out
Добавлено: 28.04.2012
Вам также может быть интересно:
Другие материалы по этой песне:

Страница создана 28.04.2012
http://primanota.ru/overseer/stompbox-chords.htm
Привет, Гость.
Предлагаем пройти революционный курс по гитаре.
Подарок от PrimaNota.Ru, забирай!