PrimaNota.ru - самый крупный в мире бесплатный архив песенных текстов, аккордов, табулатур и нот


Overseer - Screw Up - бас-таба, видео

Регистрация Запомнить меня
Войти через:  Facebook Google Twitter Vk Yandex Mail.ru

Overseer - Screw Up - бас-таба, видео

Печатать
Просмотров: 126
-------------------------------------------------------------------------------
                             Screw Up - Overseer
-------------------------------------------------------------------------------
Tabbed by: Gressi
E-mail: for corrections jan_gressi@web.de

Tuning: Standard

Note: SSX 3 fans , gather!


Intro/Main Riff:
G|------------------------------|
D|------------------------------|
A|-----------------0--1--2------|
E|-0--0-0-0-0--3-3--------------|


Key Change:
G|------------------------------|
D|------------------------------|
A|-----------------5--6--7------|
E|-5--5-5-5-5--8-8--------------|


"Chorus
G|------------------------------|
D|------------------------------|
A|--------------5-5-5--7--7-7---|
E|-5--5-5-5-3-5-----------------|

G|------------------------------|
D|------------------------------|
A|--------------5-5-5--0--0-0---|
E|-5--5-5-5-3-5-----------------|


Brdige/Outro:
G|---------------------------|
D|---------------------------| 
A|---------------------------|  
E|-0-0--0--0-0-0--0--0-------|
Добавлено: 06.11.2015
Другие материалы по этой песне:
  • Аккорды и текст

Страница создана 06.11.2015
http://primanota.ru/overseer/screw-up-chords.htm
Привет, Гость.
Предлагаем пройти революционный курс по гитаре.
Подарок от PrimaNota.Ru, забирай!