PrimaNota.ru - самый крупный в мире бесплатный архив песенных текстов, аккордов, табулатур и нот


Overkill - Necroshine - текст песни, таба, бас-таба, видео

Регистрация Запомнить меня
Войти через:  Facebook Google Twitter Vk Yandex Mail.ru

Overkill - Necroshine - текст песни, таба, бас-таба, видео

Печатать
Просмотров: 154
-------------------------------------------------------------------------------
Necroshine - Overkill
-------------------------------------------------------------------------------
Tabbed by:Pus_Head
Email:killxemxall@gmail.com

Tuning:Full Step Down


Intro w/Delay (Start slow and build speed until you get to the train part)
e|---------------------------------------------------------------------------|
B|---------------------------------------------------------------------------|
G|---------------------------------------------------------------------------|
D|---------------------------------------------------------------------------|
A|---------------------------------------------------------------------------|
E|12--0--12--0--12--0--12--0--12--0--12--0--12--0--12--0--12--0--12--0--12---|     
*      *      *      *      *      *      *      *      *      *

0:36 (x4)
e|---------------------------------------------------------------------------|
B|---------------------------------------------------------------------------|
G|---------------------------------------------------------------------------|
D|2--2---2--2--2-------------------------------------------------------------|
A|2--2---2--2--2-------------------------------------------------------------|
E|0--0---0--0--0-------------------------------------------------------------|
  *  *   *  *  *

1:11 (x1)
e|---------------------------------------------------------------------------|
B|---------------------------------------------------------------------------|
G|---------------------------------------------------------------------------|
D|---------------------------------------------------------------------------|
A|---------------------------------------------------------------------------|
E|0-0-0-0-0-0-0-0-0-0-0-0-0-0-0-0-0-0-0-0-0-0-0-0-0-0-0-0-0-0-0-0-0-0-0-0-0--|
  * * * * * * * * * * * * * * * * * * * * * * * * * * * * * * * * * * * * * 

1:20 (x2)
e|---------------------------------------------------------------------------|
B|---------------------------------------------------------------------------|
G|---------------------------------------------------------------------------|
D|------------------------2--------------------------------------------------|
A|-7---6---5--------------2--------------------------------------------------|
E|-------------7---6---5--0--0-0-0-0-0-0-0-0-0-0-0-0-0-----------------------|
                             * * * * * * * * * * * * *
1:28 (x1)                
e|---------------------------------------------------------------------------|
B|---------------------------------------------------------------------------|
G|-----------------------------------------------------9---------------------|
D|--------------------------------------2--5--7--8--9--9---------------2-----|
A|7-6-5-------7-6-5-------7-6-5---------2--5--7--8--9--7--6p7p6p7p6p7--2-----|
E|------7-6-5 ------7-6-5-------7-6-5---0--3--5--6--7------------------0-----|
                                        *  *  *  *  *  *               *
1:38 (x2)
e|---------------------------------------------------------------------------|
B|---------------------------------------------------------------------------|
G|---------------------------------------------------------------------------|
D|-----------------------------------------------------------------7---8-----|
A|-----------------------------------------------------------------7---8-----|
E|0-0---0-1-0---0----0-0---0-1-0---0----0-0---0-1-0---0----0-0---0-5---6-----|


e|---------------------------------------------------------------------------|
B|---------------------------------------------------------------------------|
G|---------------------------------------------------------------------------|
D|--------------------------------------------------------------------------|
A|---------------------------------------------------------------------------|
E|0-0---0-1-0---0----0-0---0-1-0---0----0-0---0-1-0---0---1-0-0-1-0-0-1-0----|
  

Verse
1:58 (x2) 
e|---------------------------------------------------------------------------|
B|---------------------------------------------------------------------------|
G|------------------------------------------9-9--9-10-9-10-9-10-9------------|
D|------------------------------------------9-9--9-10-9-10-9-10-9------------|
A|------------------------------------------7-7--7-8--7-8--7-8--7------------|
E|-5-5-5-5-5-5-5-5-5-5-5-5-5-5-5-5-5-5-5-5-----------------------------------|
  Harmonics

e|---------------------------------------------------------------------------|
B|---------------------------------------------------------------------------|
G|---------------------------------------------------------------------------|
D|-----------------------------------------------------------------7---8-----|
A|-----------------------------------------------------------------7---8-----|
E|0-0---0-1-0---0----0-0---0-1-0---0----0-0---0-1-0---0----0-0---0-5---6-----|


e|---------------------------------------------------------------------------|
B|---------------------------------------------------------------------------|
G|---------------------------------------------------------------------------|
D|---------------------------------------------------------------------------|
A|---------------------------------------------------------------------------|
E|0-0---0-1-0---0----0-0---0-1-0---0----0-0---0-1-0---0---1-0-0-1-0-0-1-0----|
 

Pre-Chorus
2:31 (x1)
e|---------------------------------------------------------------------------|
B|---------------------------------------------------------------------------|
G|---------------------------------------------------------------------------|
D|---------------------------------------------------------------------------|
A|---------------------------------------------------------------------------|
E|0---2-3-0-2-3-0---2-3-0-2-3-0---2-3-0-2-3-0---2-3-0-2-3-4------------------|

e|---------------------------------------------------------------------------|
B|---------------------------------------------------------------------------|
G|---------------------------------------------------------------------------|
D|---------------------------------------------2-----------------------------|
A|---------------------------------------------2-----------------------------|
E|-0---2-3-0-2-3-0---2-3-0-2-3-0---2-3-0-2-3---0-----------------------------|
                                               *
Chorus
2:40 (x1)
e|---------------------------------------------------------------------------|
B|---------------------------------------------------------------------------|
G|---------------------------------------------------------------------------|
D|-2---4-5-2-4-5-2---4-5-2-4-5-2---4-5-2-4-5-2---4-5-2-4-5-6-----------------|
A|-2---4-5-2-4-5-2---4-5-2-4-5-2---4-5-2-4-5-2---4-5-2-4-5-6-----------------|
E|-0---2-3-0-2-3-0---2-3-0-2-3-0---2-3-0-2-3-0---2-3-0-2-3-4-----------------|
   *   * * * * * *   * * * * * *   * * * * * *   * * * * * * 
e|---------------------------------------------------------------------------|
B|---------------------------------------------------------------------------|
G|---------------------------------------------------------------------------|
D|-2---4-5-2-4-5-2---4-5-2-4-5-2---4-5-2-4-5-2---4-5-2-4-5-6-----------------|
A|-2---4-5-2-4-5-2---4-5-2-4-5-2---4-5-2-4-5-2---4-5-2-4-5-6-----------------|
E|-0---2-3-0-2-3-0---2-3-0-2-3-0---2-3-0-2-3-0---2-3-0-2-3-4-----------------|
   *   * * * * * *   * * * * * *   * * * * * *   * * * * * *

Bass Fill


2:54 (x1)
e|---------------------------------------------------------------------------|
B|---------------------------------------------------------------------------|
G|---------------------------------------------------------------------------|
D|-7-8-----------------------------------------------------------------------|
A|-7-8-----------------------------------------------------------------------|
E|-5-6---0-0---0-1-0---0----0-0---0-1-0---0----0-0---0-1-0---0---1-0-0-1-0-0-1-0-|
  

e|---------------------------------------------------------------------------|
B|---------------------------------------------------------------------------|
G|---------------------------------------------------------------------------|
D|-----------------------------------------------------------------7---8-----|
A|-----------------------------------------------------------------7---8-----|
E|0-0---0-1-0---0----0-0---0-1-0---0----0-0---0-1-0---0----0-0---0-5---6-----|
  

e|---------------------------------------------------------------------------|
B|---------------------------------------------------------------------------|
G|---------------------------------------------------------------------------|
D|---------------------------------------------------------------------------|
A|---------------------------------------------------------------------------|
E|0-0---0-1-0---0----0-0---0-1-0---0----0-0---0-1-0---0---1-0-0-1-0-0-1-0----|
  

Verse
3:09 (x2)
e|---------------------------------------------------------------------------|
B|---------------------------------------------------------------------------|
G|------------------------------------------9-9--9-10-9-10-9-10-9------------|
D|------------------------------------------9-9--9-10-9-10-9-10-9------------|
A|------------------------------------------7-7--7-8--7-8--7-8--7------------|
E|-5-5-5-5-5-5-5-5-5-5-5-5-5-5-5-5-5-5-5-5-----------------------------------|
  Harmonics

e|---------------------------------------------------------------------------|
B|---------------------------------------------------------------------------|
G|---------------------------------------------------------------------------|
D|-----------------------------------------------------------------7---8-----|
A|-----------------------------------------------------------------7---8-----|
E|0-0---0-1-0---0----0-0---0-1-0---0----0-0---0-1-0---0----0-0---0-5---6-----|
   

e|---------------------------------------------------------------------------|
B|---------------------------------------------------------------------------|
G|---------------------------------------------------------------------------|
D|---------------------------------------------------------------------------|
A|---------------------------------------------------------------------------|
E|0-0---0-1-0---0----0-0---0-1-0---0----0-0---0-1-0---0---1-0-0-1-0-0-1-0----|
  

Pre-Chorus
3:42
e|---------------------------------------------------------------------------|
B|---------------------------------------------------------------------------|
G|---------------------------------------------------------------------------|
D|---------------------------------------------------------------------------|
A|---------------------------------------------------------------------------|
E|0---2-3-0-2-3-0---2-3-0-2-3-0---2-3-0-2-3-0---2-3-0-2-3-4------------------|

e|---------------------------------------------------------------------------|
B|---------------------------------------------------------------------------|
G|---------------------------------------------------------------------------|
D|---------------------------------------------2-----------------------------|
A|---------------------------------------------2-----------------------------|
E|-0---2-3-0-2-3-0---2-3-0-2-3-0---2-3-0-2-3---0-----------------------------|
                                               *
Chorus
3:52 (x1)
e|---------------------------------------------------------------------------|
B|---------------------------------------------------------------------------|
G|---------------------------------------------------------------------------|
D|-2---4-5-2-4-5-2---4-5-2-4-5-2---4-5-2-4-5-2---4-5-2-4-5-6-----------------|
A|-2---4-5-2-4-5-2---4-5-2-4-5-2---4-5-2-4-5-2---4-5-2-4-5-6-----------------|
E|-0---2-3-0-2-3-0---2-3-0-2-3-0---2-3-0-2-3-0---2-3-0-2-3-4-----------------|
   *   * * * * * *   * * * * * *   * * * * * *   * * * * * * 
e|---------------------------------------------------------------------------|
B|---------------------------------------------------------------------------|
G|---------------------------------------------------------------------------|
D|-2---4-5-2-4-5-2---4-5-2-4-5-2---4-5-2-4-5-2---4-5-2-4-5-6-----------------|
A|-2---4-5-2-4-5-2---4-5-2-4-5-2---4-5-2-4-5-2---4-5-2-4-5-6-----------------|
E|-0---2-3-0-2-3-0---2-3-0-2-3-0---2-3-0-2-3-0---2-3-0-2-3-4-----------------|
   *   * * * * * *   * * * * * *   * * * * * *   * * * * * *

Lead Up To Bridge (Over the bass)
4:01 (x1)
e|---------------------------------------------------------------------------|
B|---------------------------------------------------------------------------|
G|-----------9-------------------9-------------------------------------------|
D|-2---------9---------2---------9-------------------------------------------|
A|-2---------7---------2---------7-------------------------------------------|
E|-0-------------------0-----------------------------------------------------|

Bridge 
4:11 (x2) Only do the last five zero's the second time
e|---------------------------------------------------------------------------|
B|---------------------------------------------------------------------------|
G|---------------------------------------------------------------------------|
D|---------------------------------------------------------------------------|
A|---------------------------------------------------------------------------|
E|-0-3-0-3-0-3-0-3---0-3-0-3-0-3-0-3---0-0-0-0-------0-0-0-0-0---------------| 
                                       * * * *       * * * * *     
Bridge (The whole band comes in)
4:21 (x4)
e|---------------------------------------------------------------------------|
B|---------------------------------------------------------------------------|
G|---------------------------------------------------------------------------|
D|---------------------------------------------------------------------------|
A|---------------------------------------------------------------------------|
E|-0-3-0-3-0-3-0-3---0-3-0-3-0-3-0-3---0-0-0-0-------------------------------|
                                       * * * *
Bridge
4:39 (x2)
e|---------------------------------------------------------------------------|
B|---------------------------------------------------------------------------|
G|------9--------------------------------9----------------------------------|
D|------9--8-----7-----------------------9--8-----7--------------5-----------|
A|------7--8-----7-----------------------7--8-----7--------------5-----------|
E|-0-0-----6--0--5--0-0-0-0-0-0-0---0-0-----6--0--5--0-0-0-0-0-0-3-----------|
   * *        *     * * * * * * *   * *        *     * * * * * *

Bridge
4:48 (x2)
e|---------------------------------------------------------------------------|
B|---------------------------------------------------------------------------|
G|---------------------------------------------------------------------------|
D|---------------------------------------------------------------------------|
A|---------------------------------------------------------------------------|
E|-0-3-0-3-0-3-0-3---0-3-0-3-0-3-0-3---0-0-0-0-------------------------------|
                                       * * * *
Bridge
4:57 (x2)
e|---------------------------------------------------------------------------|
B|---------------------------------------------------------------------------|
G|------9--------------------------------9-----------------------------------|
D|------9--8-----7-----------------------9--8-----7--------------5-----------|
A|------7--8-----7-----------------------7--8-----7--------------5-----------|
E|-0-0-----6--0--5--0-0-0-0-0-0-0---0-0-----6--0--5--0-0-0-0-0-0-3----------
-|
   * *        *     * * * * * * *   * *        *     * * * * * *

Bridge
5:06 (x2)
e|---------------------------------------------------------------------------|
B|---------------------------------------------------------------------------|
G|---------------------------------------------------------------------------|
D|---------------------------------------------------------------------------|
A|---------------------------------------------------------------------------|
E|-0-3-0-3-0-3-0-3---0-3-0-3-0-3-0-3---0-0-0-0-------------------------------|
                                       * * * *

Bridge
5:15 (x2) Only do the last note second time and let ring
e|---------------------------------------------------------------------------|
B|---------------------------------------------------------------------------|
G|---------------------------------------------------------------------------|
D|-----------------------------------------------------2---------------------|
A|---5---5---5---5-----5---5---5---5-------------------2---------------------|
E|-0-7-0-7-0-7-0-7---0-7-0-7-0-7-0-7---0-0-0-0---------0---------------------|
                                       * * * *
(Pick scrape before notes)
5:26 (x1)
e|---------------------------------------------------------------------------|
B|---------------------------------------------------------------------------|
G|---------------------------------------------------------------------------|
D|-----------------------------------------------------------------7---8-----|
A|-----------------------------------------------------------------7---8-----|
E|0-0---0-1-0---0----0-0---0-1-0---0----0-0---0-1-0---0----0-0---0-5---6-----|

Repeat ending twice   
e|---------------------------------------------------------------------------|
B|---------------------------------------------------------------------------|
G|---------------------------------------------------------------------------|
D|---------------------------------------------------------------------------|
A|---------------------------------------------------------------------------|
E|0-0---0-1-0---0----0-0---0-1-0---0----0-0---0-1-0---0---1-0-0-1-0-0-1-0----|
  
Last Chorus
5:40 (x2)
e|---------------------------------------------------------------------------|
B|---------------------------------------------------------------------------|
G|---------------------------------------------------------------------------|
D|-----------------------------------------------------------------7---8-----|
A|-----------------------------------------------------------------7---8-----|
E|0-0---0-1-0---0----0-0---0-1-0---0----0-0---0-1-0---0----0-0---0-5---6-----|

e|---------------------------------------------------------------------------|
B|---------------------------------------------------------------------------|
G|---------------------------------------------------------------------------|
D|---------------------------------------------------------------------------|
A|---------------------------------------------------------------------------|
E|0-0---0-1-0---0----0-0---0-1-0---0----0-0---0-1-0---0---1-0-0-1-0-0-1-0----|      

e|---------------------------------------------------------------------------|
B|---------------------------------------------------------------------------|
G|---------------------------------------------------------------------------|
D|-2-2-2-2-2-----------------------------------------------------------------|
A|-2-2-2-2-2-----------------------------------------------------------------|
E|-0-0-0-0-0-----------------------------------------------------------------|
   * * * * *

               
Добавлено: 22.06.2013
Другие материалы по этой песне:

Страница создана 29.02.2012
http://primanota.ru/overkill/necroshine-chords.htm
Привет, Гость.
Предлагаем пройти революционный курс по гитаре.
Подарок от PrimaNota.Ru, забирай!