PrimaNota.ru - самый крупный в мире бесплатный архив песенных текстов, аккордов, табулатур и нот


Overkill - Black Line - текст песни, таба, видео

Регистрация Запомнить меня
Войти через:  Facebook Google Twitter Vk Yandex Mail.ru

Overkill - Black Line - текст песни, таба, видео

Печатать
Просмотров: 142
As recorded by Overkill
(From the 1999 Album NECROSHINE)

Transcribed by Fear Fex
	

Words and Music by Overkill
Arranged by Overkill

Gtr I (A E A D G B E) - 'Guitar 1'
Gtr II (A E A D G B E) - 'Guitar 2'
Gtr III (A E A D G B E) - 'Solo Guitar for Outro'

 Intro
  New York Trash Metal Q=168
  D5
 4/4
  Gtrs I, II
  W          +W           +W           +W
|----------|------------|------------|--------|
|----------|------------|------------|--------|
|----------|------------|------------|--------|
|----------|------------|------------|--------|
|-5--------|-(5)--------|-(5)--------|-(5)----|
|-5--------|-(5)--------|-(5)--------|-(5)----|
|-5--------|-(5)--------|-(5)--------|-(5)----|


  D5
   PM|    PM|      PM|    PM|      PM|    PM|      PM|    PM|
   E E Q  E E Q    E E Q  E E Q    E E Q  E E Q    E E Q  E E Q
|----------------|---------------|---------------|---------------|
|----------------|---------------|---------------|---------------|
|----------------|---------------|---------------|---------------|
|----------------|---------------|---------------|---------------|
|------5------5--|-----5------5--|-----5------5--|-----5------5--|
|------5------5--|-----5------5--|-----5------5--|-----5------5--|
|-\5-5-5--5-5-5--|-5-5-5--5-5-5--|-5-5-5--5-5-5--|-5-5-5--5-5-5--|


   Verse
    D5
    Gtrs I, II
    PM|    PM|      PM|    PM|      PM|    PM|      PM|    PM|
    E E Q  E E Q    E E Q  E E Q    E E Q  E E Q    E E Q  E E Q
||----------------|---------------|---------------|----------------|
||----------------|---------------|---------------|----------------|
||o---------------|---------------|---------------|----------------|
||----------------|---------------|---------------|----------------|
||o-----5------5--|-----5------5--|-----5------5--|-----5------5---|
||------5------5--|-----5------5--|-----5------5--|-----5------5---|
||--5-5-5--5-5-5--|-5-5-5--5-5-5--|-5-5-5--5-5-5--|-5-5-5--5-5-5---|


                                  Bb5A5 G5 F5   C5  Bb5A5 F5
  PM|    PM|      PM|    PM|
  E E Q  E E Q    E E Q  E E Q    Q  Q  Q  Q     Q  Q  Q  Q
|---------------|---------------|-------------|--------------|
|---------------|---------------|-------------|--------------|
|---------------|---------------|-------------|--------------|
|---------------|---------------|-8--7--5--3--|-10--8--7--3--|
|-----5------5--|-----5------5--|-8--7--5--3--|-10--8--7--3--|
|-----5------5--|-----5------5--|-6--5--3--1--|--8--6--5--1--|
|-5-5-5--5-5-5--|-5-5-5--5-5-5--|-------------|--------------|


  G5                     G5 F5
  PM|    PM|      PM|
  E E Q  E E Q    E E Q  E. S +Q
|---------------|-------------------||
|---------------|-------------------||
|---------------|------------------o||
|-----5------5--|-----5--5--3-(3)---||
|-----5------5--|-----5--5--3-(3)--o||
|-3-3-3--3-3-3--|-3-3-3--3--1-(1)---||
|---------------|-------------------||


   Pre-Chorus
    Eb5        Bb5     F5   G5 F5G5G#G5      G5 F5G5G#G5
    Gtrs I, II
    W          H.      Q    Q  E E E E E E   Q  E E E E E E
||-----------|------------|----------------|------------------||
||-----------|------------|----------------|------------------||
||o----------|------------|----------------|-----------------o||
||-----------|-8-------3--|-5--3-5-6-5-x-x-|-5--3-5-6-5-x-x---||
||o-6--------|-8-------3--|-5--3-5-6-5-x-x-|-5--3-5-6-5-x-x--o||
||--6--------|-6-------1--|-3--1-3-4-3-x-x-|-3--1-3-4-3-x-x---||
||--6--------|------------|----------------|------------------||


  Eb5        Bb5        F5/C        C5
  Gtrs I, II
  W          W           W           W
|----------|----------|-----------|-----------|
|----------|----------|-----------|-----------|
|----------|----------|-----------|-----------|
|----------|-8--------|-10--------|-10--------|
|-6--------|-8--------|--8--------|-10--------|
|-6--------|-6--------|--8--------|--8--------|
|-6--------|----------|-----------|-----------|


  Eb5/Bb     Bb5        A5
  W          W          E E E E E E E E   E E E E E E E E
|----------|----------|-----------------|-----------------|
|----------|----------|-----------------|-----------------|
|----------|----------|-----------------|-----------------|
|-8--------|-8--------|-7-7-7-7-7-7-7-7-|-7-7-7-7-7-7-7-7-|
|-6--------|-8--------|-7-7-7-7-7-7-7-7-|-7-7-7-7-7-7-7-7-|
|-6--------|-6--------|-5-5-5-5-5-5-5-5-|-5-5-5-5-5-5-5-5-|
|----------|----------|-----------------|-----------------|


   Chorus
    D5                G5
    Gtr I
    W                 W
||------------------|-----------------|
||------------------|-----------------|
||o-----------------|-----------------|
||------------------|-5---------------|
||o-5---------------|-5---------------|
||--5---------------|-3---------------|
||--5---------------|-----------------|
|
|   Gtr II
|   PM---------------------------------
|   E E E E E E E E   E E E E E E E E
||------------------|-----------------|
||------------------|-----------------|
||o-----------------|-----------------|
||------------------|-5-5-5-5-5-5-5-5-|
||o-5-5-5-5-5-5-5-5-|-5-5-5-5-5-5-5-5-|
||--5-5-5-5-5-5-5-5-|-3-3-3-3-3-3-3-3-|
||--5-5-5-5-5-5-5-5-|-----------------|


  Bb5               C5
  W                  W
|-----------------|--------------------------|
|-----------------|--------------------------|
|-----------------|--------------------------|
|-8---------------|-10-----------------------|
|-8---------------|-10-----------------------|
|-6---------------|--8-----------------------|
|-----------------|--------------------------|
|
|----------------------------------------|
| E E E E E E E E    E  E  E  E  E  E  E  E
|-----------------|--------------------------|
|-----------------|--------------------------|
|-----------------|--------------------------|
|-8-8-8-8-8-8-8-8-|-10-10-10-10-10-10-10-10--|
|-8-8-8-8-8-8-8-8-|-10-10-10-10-10-10-10-10--|
|-6-6-6-6-6-6-6-6-|--8--8--8--8--8--8--8--8--|
|-----------------|--------------------------|


  D5                G5                F5                G5
  W                 W                 W                 W
|-----------------|-----------------|-----------------|------------------||
|-----------------|-----------------|-----------------|------------------||
|-----------------|-----------------|-----------------|-----------------o||
|-----------------|-5---------------|-3---------------|-5----------------||
|-5---------------|-5---------------|-3---------------|-5---------------o||
|-5---------------|-3---------------|-1---------------|-3----------------||
|-5---------------|-----------------|-----------------|------------------||
|
| PM------------------------------------------------------------------|
| E E E E E E E E   E E E E E E E E   E E E E E E E E   E E E E E E E E
|-----------------|-----------------|-----------------|------------------||
|-----------------|-----------------|-----------------|------------------||
|-----------------|-----------------|-----------------|-----------------o||
|-----------------|-5-5-5-5-5-5-5-5-|-3-3-3-3-3-3-3-3-|-5-5-5-5-5-5-5-5--||
|-5-5-5-5-5-5-5-5-|-5-5-5-5-5-5-5-5-|-3-3-3-3-3-3-3-3-|-5-5-5-5-5-5-5-5-o||
|-5-5-5-5-5-5-5-5-|-3-3-3-3-3-3-3-3-|-1-1-1-1-1-1-1-1-|-3-3-3-3-3-3-3-3--||
|-5-5-5-5-5-5-5-5-|-----------------|-----------------|------------------||


 Pre-Verse
  D5
  Gtrs I, II
  PM----|    PM|      PM|    PM|      PM|    PM|      PM|    PM|
  E     E Q  E E Q    E E Q  E E Q    E E Q  E E Q    E E Q  E E Q
|-------------------|---------------|---------------|---------------|
|-------------------|---------------|---------------|---------------|
|-------------------|---------------|---------------|---------------|
|-------------------|---------------|---------------|---------------|
|---------5------5--|-----5------5--|-----5------5--|-----5------5--|
|---------5------5--|-----5------5--|-----5------5--|-----5------5--|
|-5b5.5-5-5--5-5-5--|-5-5-5--5-5-5--|-5-5-5--5-5-5--|-5-5-5--5-5-5--|


   Verse
    D5
    PM|    PM|      PM|    PM|      PM|    PM|      PM|    PM|
    E E Q  E E Q    E E Q  E E Q    E E Q  E E Q    E E Q  E E Q
||----------------|---------------|---------------|----------------|
||----------------|---------------|---------------|----------------|
||o---------------|---------------|---------------|----------------|
||----------------|---------------|---------------|----------------|
||o-----5------5--|-----5------5--|-----5------5--|-----5------5---|
||------5------5--|-----5------5--|-----5------5--|-----5------5---|
||--5-5-5--5-5-5--|-5-5-5--5-5-5--|-5-5-5--5-5-5--|-5-5-5--5-5-5---|


                                  Bb5A5 G5 F5   C5  Bb5A5 F5
  PM|    PM|      PM|    PM|
  E E Q  E E Q    E E Q  E E Q    Q  Q  Q  Q     Q  Q  Q  Q
|---------------|---------------|-------------|--------------|
|---------------|---------------|-------------|--------------|
|---------------|---------------|-------------|--------------|
|---------------|---------------|-8--7--5--3--|-10--8--7--3--|
|-----5------5--|-----5------5--|-8--7--5--3--|-10--8--7--3--|
|-----5------5--|-----5------5--|-6--5--3--1--|--8--6--5--1--|
|-5-5-5--5-5-5--|-5-5-5--5-5-5--|-------------|--------------|


  G5                     G5 F5
  PM|    PM|      PM|
  E E Q  E E Q    E E Q  E. S +Q
|---------------|-------------------||
|---------------|-------------------||
|---------------|------------------o||
|-----5------5--|-----5--5--3-(3)---||
|-----5------5--|-----5--5--3-(3)--o||
|-3-3-3--3-3-3--|-3-3-3--3--1-(1)---||
|---------------|-------------------||


   Pre-Chorus
    Eb5        Bb5     F5   G5 F5G5G#G5      G5 F5G5G#G5
    W          H.      Q    Q  E E E E E E   Q  E E E E E E
||-----------|------------|----------------|------------------||
||-----------|------------|----------------|------------------||
||o----------|------------|----------------|-----------------o||
||-----------|-8-------3--|-5--3-5-6-5-x-x-|-5--3-5-6-5-x-x---||
||o-6--------|-8-------3--|-5--3-5-6-5-x-x-|-5--3-5-6-5-x-x--o||
||--6--------|-6-------1--|-3--1-3-4-3-x-x-|-3--1-3-4-3-x-x---||
||--6--------|------------|----------------|------------------||


  Eb5        Bb5        F5/C        C5
  W          W           W           W
|----------|----------|-----------|-----------|
|----------|----------|-----------|-----------|
|----------|----------|-----------|-----------|
|----------|-8--------|-10--------|-10--------|
|-6--------|-8--------|--8--------|-10--------|
|-6--------|-6--------|--8--------|--8--------|
|-6--------|----------|-----------|-----------|


  Eb5/Bb     Bb5        A5
  W          W          E E E E E E E E   E E E E E E E E
|----------|----------|-----------------|-----------------|
|----------|----------|-----------------|-----------------|
|----------|----------|-----------------|-----------------|
|-8--------|-8--------|-7-7-7-7-7-7-7-7-|-7-7-7-7-7-7-7-7-|
|-6--------|-8--------|-7-7-7-7-7-7-7-7-|-7-7-7-7-7-7-7-7-|
|-6--------|-6--------|-5-5-5-5-5-5-5-5-|-5-5-5-5-5-5-5-5-|
|----------|----------|-----------------|-----------------|


   Chorus
    D5                G5
    Gtr I
    W                 W
||------------------|-----------------|
||------------------|-----------------|
||o-----------------|-----------------|
||------------------|-5---------------|
||o-5---------------|-5---------------|
||--5---------------|-3---------------|
||--5---------------|-----------------|
|
|   Gtr II
|   PM---------------------------------
|   E E E E E E E E   E E E E E E E E
||------------------|-----------------|
||------------------|-----------------|
||o-----------------|-----------------|
||------------------|-5-5-5-5-5-5-5-5-|
||o-5-5-5-5-5-5-5-5-|-5-5-5-5-5-5-5-5-|
||--5-5-5-5-5-5-5-5-|-3-3-3-3-3-3-3-3-|
||--5-5-5-5-5-5-5-5-|-----------------|


  Bb5               C5
  W                  W
|-----------------|--------------------------|
|-----------------|--------------------------|
|-----------------|--------------------------|
|-8---------------|-10-----------------------|
|-8---------------|-10-----------------------|
|-6---------------|--8-----------------------|
|-----------------|--------------------------|
|
|----------------------------------------|
| E E E E E E E E    E  E  E  E  E  E  E  E
|-----------------|--------------------------|
|-----------------|--------------------------|
|-----------------|--------------------------|
|-8-8-8-8-8-8-8-8-|-10-10-10-10-10-10-10-10--|
|-8-8-8-8-8-8-8-8-|-10-10-10-10-10-10-10-10--|
|-6-6-6-6-6-6-6-6-|--8--8--8--8--8--8--8--8--|
|-----------------|--------------------------|


  D5                G5
  W                 W
|-----------------|-----------------|
|-----------------|-----------------|
|-----------------|-----------------|
|-----------------|-5---------------|
|-5---------------|-5---------------|
|-5---------------|-3---------------|
|-5---------------|-----------------|
|
| PM---------------------------------
| E E E E E E E E   E E E E E E E E
|-----------------|-----------------|
|-----------------|-----------------|
|-----------------|-----------------|
|-----------------|-5-5-5-5-5-5-5-5-|
|-5-5-5-5-5-5-5-5-|-5-5-5-5-5-5-5-5-|
|-5-5-5-5-5-5-5-5-|-3-3-3-3-3-3-3-3-|
|-5-5-5-5-5-5-5-5-|-----------------|


                   1.                  2.
  F5                G5                  G5
  W                 W                   W
|-----------------|------------------||------|
|-----------------|------------------||------|
|-----------------|-----------------o||------|
|-3---------------|-5----------------||-5----|
|-3---------------|-5---------------o||-5----|
|-1---------------|-3----------------||-3----|
|-----------------|------------------||------|
|
|---------------------------------|
| E E E E E E E E   E E E E E E E E     W
|-----------------|------------------||------|
|-----------------|------------------||------|
|-----------------|-----------------o||------|
|-3-3-3-3-3-3-3-3-|-5-5-5-5-5-5-5-5--||-5----|
|-3-3-3-3-3-3-3-3-|-5-5-5-5-5-5-5-5-o||-5----|
|-1-1-1-1-1-1-1-1-|-3-3-3-3-3-3-3-3--||-3----|
|-----------------|------------------||------|


 First Guitar Solo
  G5
  Gtr I
   S  S S S  S  S  S  S  S  S  S  S  S  S  S  S
|-----------------------------------------------|
|-----------------------------------------------|
|-----------------------------------------------|
|-----------------------------------------12-13-|
|--8--8-9-9-10-10-13-13-10-10-13-13-10-10-------|
|-----------------------------------------------|
|-----------------------------------------------|
|
| Gtr II
| +W
|-----------------------------------------------|
|-----------------------------------------------|
|-----------------------------------------------|
|-(5)-------------------------------------------|
|-(5)-------------------------------------------|
|-(3)-------------------------------------------|
|-----------------------------------------------|


                                                     D5
   S   S  S  S  S  S  S  S  S  S  S  S  S  S  S  S    H                   H
|-----------------------------------------12-13-15-|-15b17---------------15b17---------------|
|-----------------------------------12-13----------|-----------------------------------------|
|-----------------12-13----12-13-15----------------|-----------------------------------------|
|-10--10-12-13-15-------15-------------------------|-----------------------------------------|
|--------------------------------------------------|-----------------------------------------|
|--------------------------------------------------|-----------------------------------------|
|--------------------------------------------------|-----------------------------------------|
|
|                                                     PM-----------------------------------|
| +W                                                  S    S S S S S S S  S    S S S S S S S
|--------------------------------------------------|-----------------------------------------|
|--------------------------------------------------|-----------------------------------------|
|--------------------------------------------------|-----------------------------------------|
|-(5)----------------------------------------------|-----------------------------------------|
|-(5)----------------------------------------------|--5----5-5-5-5-5-5-5--5----5-5-5-5-5-5-5-|
|-(3)----------------------------------------------|--5----5-5-5-5-5-5-5--5----5-5-5-5-5-5-5-|
|--------------------------------------------------|--5----5-5-5-5-5-5-5--5----5-5-5-5-5-5-5-|


                           ~~
   E       S  S  E    E    H                  S  S  S  S  S  S  S  S  S  S  S  S  S  S  S  S
|-15b17---15-13-15---13---10---------------|-17-15-13-12-15-13-12----13-12-------12----------|
|------------------------------------------|----------------------15-------15-13----15-13----|
|------------------------------------------|----------------------------------------------15-|
|------------------------------------------|-------------------------------------------------|
|------------------------------------------|-------------------------------------------------|
|------------------------------------------|-------------------------------------------------|
|------------------------------------------|-------------------------------------------------|
|
|  PM-----------------------------------------------------------------------------------------
|  S    S  S  S  S S  S S  S S S S S S S S    S  S  S  S  S  S  S  S  S  S  S  S  S  S  S  S
|------------------------------------------|-------------------------------------------------|
|------------------------------------------|-------------------------------------------------|
|------------------------------------------|-------------------------------------------------|
|------------------------------------------|-------------------------------------------------|
|--5----5--5--5--5-5--5-5--5-5-5-5-5-5-5-5-|--5--5--5--5--5--5--5--5--5--5--5--5--5--5--5--5-|
|--5----5--5--5--5-5--5-5--5-5-5-5-5-5-5-5-|--5--5--5--5--5--5--5--5--5--5--5--5--5--5--5--5-|
|--5----5--5--5--5-5--5-5--5-5-5-5-5-5-5-5-|--5--5--5--5--5--5--5--5--5--5--5--5--5--5--5--5-|


   S  S  S  S  S  S  S  S  S  S  S  S  Q
|----------------------------------------------|
|-15-13-------13-------------------------------|
|-------15-14----15-14-12-15-14-12-------------|
|----------------------------------15-14-------|
|----------------------------------------------|
|----------------------------------------------|
|----------------------------------------------|
|
|--------------------------------------------|
|  S  S  S  S  S  S  S  S  S  S  S  S  S S S S
|----------------------------------------------|
|----------------------------------------------|
|----------------------------------------------|
|----------------------------------------------|
|--5--5--5--5--5--5--5--5--5--5--5--5--5-5-5-5-|
|--5--5--5--5--5--5--5--5--5--5--5--5--5-5-5-5-|
|--5--5--5--5--5--5--5--5--5--5--5--5--5-5-5-5-|


  Bb5
    |-------3-------|
    Q      Q        Q      Q        E    E
|--------------------------------------------|
|--------------------------------------------|
|--------------------------------------------|
|-/15-----14-------12-----10-------12---14---|
|--------------------------------------------|
|--------------------------------------------|
|--------------------------------------------|
|
|   PM----------------------------------------
|   S S S    S S S    S S  S S S S  S S  S S
|--------------------------------------------|
|--------------------------------------------|
|--------------------------------------------|
|---8-8-8----8-8-8----8-8--8-8-8-8--8-8--8-8-|
|---8-8-8----8-8-8----8-8--8-8-8-8--8-8--8-8-|
|---6-6-6----6-6-6----6-6--6-6-6-6--6-6--6-6-|
|--------------------------------------------|


                           ~~
    |-------3-------|
    Q      Q        Q      H
|--------------------------------------------|
|--------------------------------------------|
|-/15-----14-------12-----10-----------------|
|--------------------------------------------|
|--------------------------------------------|
|--------------------------------------------|
|--------------------------------------------|
|
|----------------------------------------|
|   S S S    S S S    S S  S S S S S S S S
|--------------------------------------------|
|--------------------------------------------|
|--------------------------------------------|
|---8-8-8----8-8-8----8-8--8-8-8-8-8-8-8-8---|
|---8-8-8----8-8-8----8-8--8-8-8-8-8-8-8-8---|
|---6-6-6----6-6-6----6-6--6-6-6-6-6-6-6-6---|
|--------------------------------------------|


  C5
   S  S  S  S  E     E     E     E     S  S  S  S
|--------------------------------7-----8--8-10--8-|
|--------------7-----8----10----------------------|
|--------7--9-------------------------------------|
|--7--9-------------------------------------------|
|-------------------------------------------------|
|-------------------------------------------------|
|-------------------------------------------------|
|
|  PM----------------------------------------------
|  S  S  S  S  S  S  S  S  S  S  S  S  S  S  S  S
|-------------------------------------------------|
|-------------------------------------------------|
|-------------------------------------------------|
|-10-10-10-10-10-10-10-10-10-10-10-10-10-10-10-10-|
|-10-10-10-10-10-10-10-10-10-10-10-10-10-10-10-10-|
|--8--8--8--8--8--8--8--8--8--8--8--8--8--8--8--8-|
|-------------------------------------------------|


   E     E     E     Q        E  Q
|-10-----8-----7-----5--------7--8--|
|-----------------------------------|
|-----------------------------------|
|-----------------------------------|
|-----------------------------------|
|-----------------------------------|
|-----------------------------------|
|
|----------------------------|
|  S  S  S  S  S  S  S  S  E  Q.
|-----------------------------------|
|-----------------------------------|
|-----------------------------------|
|-10-10-10-10-10-10-10-10-10-10-----|
|-10-10-10-10-10-10-10-10-10-10-----|
|--8--8--8--8--8--8--8--8--8--8-----|
|-----------------------------------|


  D5
   ~~~~~~~~~~~~~~~~~~~                                              ~
   H                H                 S S S S a a  E   S S  E   E   Q
|-10---------------10---------------|-------------10---8-7------------------|
|-----------------------------------|-----------x----------10---------------|
|-----------------------------------|-----7-9-x-----------------7---9-------|
|-----------------------------------|-7-9-----------------------------------|
|-----------------------------------|---------------------------------------|
|-----------------------------------|---------------------------------------|
|-----------------------------------|---------------------------------------|
|
|  PM---------------------------------------------------------------------|
|  S S S S S S S S  S S S S S S S S   S S S S      S S S S  S S S S S S S S
|-----------------------------------|---------------------------------------|
|-----------------------------------|---------------------------------------|
|-----------------------------------|---------------------------------------|
|-----------------------------------|---------------------------------------|
|--5-5-5-5-5-5-5-5--5-5-5-5-5-5-5-5-|-5-5-5-5------5-5-5-5--5-5-5-5-5-5-5-5-|
|--5-5-5-5-5-5-5-5--5-5-5-5-5-5-5-5-|-5-5-5-5------5-5-5-5--5-5-5-5-5-5-5-5-|
|--5-5-5-5-5-5-5-5--5-5-5-5-5-5-5-5-|-5-5-5-5------5-5-5-5--5-5-5-5-5-5-5-5-|


   E    S  S  E    E    E    S  S  E    E
|-------------------------------------------|
|------------12--------12------12-13---12---|
|-14---12-14------14--------14--------------|
|-------------------------------------------|
|-------------------------------------------|
|-------------------------------------------|
|-------------------------------------------|
|
|  PM----------------------------------------
|  S S  S  S  S S  S S  S S  S  S  S S  S S
|-------------------------------------------|
|-------------------------------------------|
|-------------------------------------------|
|-------------------------------------------|
|--5-5--5--5--5-5--5-5--5-5--5--5--5-5--5-5-|
|--5-5--5--5--5-5--5-5--5-5--5--5--5-5--5-5-|
|--5-5--5--5--5-5--5-5--5-5--5--5--5-5--5-5-|


   E    S  S  E    E    E    S  S  Q
|----------------------15---13-15-17-------|
|-13---12-13-15---12-----------------------|
|------------------------------------------|
|------------------------------------------|
|------------------------------------------|
|------------------------------------------|
|------------------------------------------|
|
|----------------------------------------|
|  S S  S  S  S S  S S  S S  S  S  S S S S
|------------------------------------------|
|------------------------------------------|
|------------------------------------------|
|------------------------------------------|
|--5-5--5--5--5-5--5-5--5-5--5--5--5-5-5-5-|
|--5-5--5--5--5-5--5-5--5-5--5--5--5-5-5-5-|
|--5-5--5--5--5-5--5-5--5-5--5--5--5-5-5-5-|


  Bb5
   |-------3-------|      |-------3-------|
   Q      Q        Q      Q      Q        Q
|-18-----17-------15-----17-----15-------13-----|
|-----------------------------------------------|
|-----------------------------------------------|
|-----------------------------------------------|
|-----------------------------------------------|
|-----------------------------------------------|
|-----------------------------------------------|
|
|  PM--------------------------------------------
|  S S S    S S S    S S  S S S    S S S    S S
|-----------------------------------------------|
|-----------------------------------------------|
|-----------------------------------------------|
|--8-8-8----8-8-8----8-8--8-8-8----8-8-8----8-8-|
|--8-8-8----8-8-8----8-8--8-8-8----8-8-8----8-8-|
|--6-6-6----6-6-6----6-6--6-6-6----6-6-6----6-6-|
|-----------------------------------------------|


   |-------3-------|
   Q      Q        Q      H
|-15-----13-------12-----13---------------|
|-----------------------------------------|
|-----------------------------------------|
|-----------------------------------------|
|-----------------------------------------|
|-----------------------------------------|
|-----------------------------------------|
|
|---------------------------------------|
|  S S S    S S S    S S  S S S S S S S S
|-----------------------------------------|
|-----------------------------------------|
|-----------------------------------------|
|--8-8-8----8-8-8----8-8--8-8-8-8-8-8-8-8-|
|--8-8-8----8-8-8----8-8--8-8-8-8-8-8-8-8-|
|--6-6-6----6-6-6----6-6--6-6-6-6-6-6-6-6-|
|-----------------------------------------|


  C5
   S  S  S  S  E     S  S  S  S  E     S  S  S  S
|-------------------------------------------------|
|-------------------------13-------------13-15-13-|
|-12-14-15-14-12----14-15----15-14----15----------|
|-------------------------------------------------|
|-------------------------------------------------|
|-------------------------------------------------|
|-------------------------------------------------|
|
|  PM----------------------------------------------
|  S  S  S  S  S  S  S  S  S  S  S  S  S  S  S  S
|-------------------------------------------------|
|-------------------------------------------------|
|-------------------------------------------------|
|-10-10-10-10-10-10-10-10-10-10-10-10-10-10-10-10-|
|-10-10-10-10-10-10-10-10-10-10-10-10-10-10-10-10-|
|--8--8--8--8--8--8--8--8--8--8--8--8--8--8--8--8-|
|-------------------------------------------------|


                               ~~
   E     S  S  S  S  S  S  Q   Q
|-------------12----------15--17--|
|-------13-15----13-15-13---------|
|-15------------------------------|
|---------------------------------|
|---------------------------------|
|---------------------------------|
|---------------------------------|
|
|-----------------------------|
|  S  S  S  S  S  S  S  S  Q   Q
|---------------------------------|
|---------------------------------|
|---------------------------------|
|-10-10-10-10-10-10-10-10-10--10--|
|-10-10-10-10-10-10-10-10-10--10--|
|--8--8--8--8--8--8--8--8--8---8--|
|---------------------------------|


   Second Guitar Solo
    D5                                    G5
    Gtr I
                        ~~
     Q        E    E    H                  Q       E   E   Q       E   E
||--------------------------------------|-----------------------------------|
||--------------------------------------|-----------------------------------|
||o-------------------------------------|-----------------------------------|
||--12-------12---10---12---------------|-10-------9---7---5-------5---3----|
||o-------------------------------------|-----------------------------------|
||--------------------------------------|-----------------------------------|
||--------------------------------------|-----------------------------------|
|
|   Gtr II
|    S S S S  S S  S S  S S S S S S S S    S S S S S S S S S S S S S S S S
||--------------------------------------|-----------------------------------|
||--------------------------------------|-----------------------------------|
||o-------------------------------------|-----------------------------------|
||--------------------------------------|--5-5-5-5-5-5-5-5-5-5-5-5-5-5-5-5--|
||o--5-5-5-5--5-5--5-5--5-5-5-5-5-5-5-5-|--5-5-5-5-5-5-5-5-5-5-5-5-5-5-5-5--|
||---5-5-5-5--5-5--5-5--5-5-5-5-5-5-5-5-|--3-3-3-3-3-3-3-3-3-3-3-3-3-3-3-3--|
||---5-5-5-5--5-5--5-5--5-5-5-5-5-5-5-5-|-----------------------------------|


  C5
                           ~~
   Q           E     E     H
|-------------------------------------------------|
|-------------------------------------------------|
|-------------------------------------------------|
|-10----------10-----9----10----------------------|
|-------------------------------------------------|
|-------------------------------------------------|
|-------------------------------------------------|
|
|  S  S  S  S  S  S  S  S  S  S  S  S  S  S  S  S
|-------------------------------------------------|
|-------------------------------------------------|
|-------------------------------------------------|
|-10-10-10-10-10-10-10-10-10-10-10-10-10-10-10-10-|
|-10-10-10-10-10-10-10-10-10-10-10-10-10-10-10-10-|
|--8--8--8--8--8--8--8--8--8--8--8--8--8--8--8--8-|
|-------------------------------------------------|


  F5
  Q       E   E   Q       E   E
|---------------------------------|
|---------------------------------|
|---------------------------------|
|-9-------7---5---3-------3---2---|
|---------------------------------|
|---------------------------------|
|---------------------------------|
|
| S S S S S S S S S S S S S S S S
|---------------------------------|
|---------------------------------|
|---------------------------------|
|-3-3-3-3-3-3-3-3-3-3-3-3-3-3-3-3-|
|-3-3-3-3-3-3-3-3-3-3-3-3-3-3-3-3-|
|-1-1-1-1-1-1-1-1-1-1-1-1-1-1-1-1-|
|---------------------------------|


  A5                                Eb5
                  ~                                 ~
  Q       E   E   H                 Q       E   E   H
|---------------------------------|---------------------------------|
|---------------------------------|---------------------------------|
|---------------------------------|---------------------------------|
|-7-------8---7---8---------------|-7-------5---3---2---------------|
|---------------------------------|---------------------------------|
|---------------------------------|---------------------------------|
|---------------------------------|---------------------------------|
|
| S S S S S S S S S S S S S S S S   S S S S S S S S S S S S S S S S
|---------------------------------|---------------------------------|
|---------------------------------|---------------------------------|
|---------------------------------|---------------------------------|
|-7-7-7-7-7-7-7-7-7-7-7-7-7-7-7-7-|---------------------------------|
|-7-7-7-7-7-7-7-7-7-7-7-7-7-7-7-7-|-6-6-6-6-6-6-6-6-6-6-6-6-6-6-6-6-|
|-5-5-5-5-5-5-5-5-5-5-5-5-5-5-5-5-|-6-6-6-6-6-6-6-6-6-6-6-6-6-6-6-6-|
|---------------------------------|-6-6-6-6-6-6-6-6-6-6-6-6-6-6-6-6-|


  1.
  A5          Bb5         C5          D5
   S  S  S  S  S  S  S  S  S  S  S  S  S  S  S  S
|-------------------------------------------------|
|-------------------------------------------------|
|-------------------------10----10----12-10-12-10-|
|-12-10-12-10-14-12-14-10----14----14-------------|
|-------------------------------------------------|
|-------------------------------------------------|
|-------------------------------------------------|
|
|  Q           Q           Q           Q
|-------------------------------------------------|
|-------------------------------------------------|
|-------------------------------------------------|
|--7-----------8----------10----------12----------|
|--7-----------8----------10----------12----------|
|--5-----------6-----------8----------10----------|
|-------------------------------------------------|


  A5          Bb5         C5
   S  S  S  S  S  S  S  S  H
|--------------------------------||
|-------------11----11----13-----||
|-14-12-14-12----14----14-------o||
|--------------------------------||
|-------------------------------o||
|--------------------------------||
|--------------------------------||
|
|  Q           Q           H
|--------------------------------||
|--------------------------------||
|-------------------------------o||
|--7-----------8----------10-----||
|--7-----------8----------10----o||
|--5-----------6-----------8-----||
|--------------------------------||


  2.
  A5          Bb5         C5          D5
   S  S  S  S  S  S  S  S  S  S  S  S  S  S  S  S
|-------------------------------------------------|
|-------------------------------------------------|
|-------------------------10----10----12-10-12-10-|
|-12-10-12-10-14-12-14-12----12----12-------------|
|-------------------------------------------------|
|-------------------------------------------------|
|-------------------------------------------------|
|
|  Q           Q           Q           Q
|-------------------------------------------------|
|-------------------------------------------------|
|-------------------------------------------------|
|--7-----------8----------10----------12----------|
|--7-----------8----------10----------12----------|
|--5-----------6-----------8----------10----------|
|-------------------------------------------------|


  A5          Bb5         C5  D5
   S  S  S  S  S  S  S  S  q   E  E
|-----------------------------------|
|-------------12----12----15--15-13-|
|-14-12-14-12----14----14-----------|
|-----------------------------------|
|-----------------------------------|
|-----------------------------------|
|-----------------------------------|
|
|  Q           Q           Q   Q
|-----------------------------------|
|-----------------------------------|
|-----------------------------------|
|--7-----------8----------10--12----|
|--7-----------8----------10--12----|
|--5-----------6-----------8--10----|
|-----------------------------------|


  G5
   ~~~~~~~~~~~~~~~~
   W           +W
|-----------|---------|
|-15--------|-(15)----|
|-----------|---------|
|-----------|---------|
|-----------|---------|
|-----------|---------|
|-----------|---------|
|
|  W           +W
|-----------|---------|
|-----------|---------|
|-----------|---------|
|--5--------|--(5)----|
|--5--------|--(5)----|
|--3--------|--(3)----|
|-----------|---------|


   Bridge
    Gtr I
      Q.     Q.   E E   Q  Q  Q  Q
||--------------------|-------------|
||--------------------|-------------|
||o-------------------|-------------|
||--/10----/10----8-7-|-8--7--5--3--|
||o-------------------|-------------|
||--------------------|-------------|
||--------------------|-------------|


  Q  E Q  E Q    +E  Q.   Q.   E
|--------------|-----------------|
|--------------|-----------------|
|--------------|-----------------|
|-3--2-3--5-5--|-(5)-5----5----5-|
|--------------|-----------------|
|--------------|-----------------|
|--------------|-----------------|


    Q.     Q.   E E   Q  Q  Q  Q
|-------------------|-------------|
|-------------------|-------------|
|-------------------|-------------|
|-/10----/10----8-7-|-8--7--5--3--|
|-------------------|-------------|
|-------------------|-------------|
|-------------------|-------------|


  1.
  Q  E Q  E Q    Q  Q  Q  Q
|--------------|--------------||
|--------------|--------------||
|--------------|-------------o||
|-3--2-3--5-5--|-3--5--7--8---||
|--------------|-------------o||
|--------------|--------------||
|--------------|--------------||


  2.
  Q  E Q  E Q    +E  Q.   H
|--------------|---------------|
|--------------|---------------|
|--------------|---------------|
|-3--2-3--5-5--|-(5)-5----5----|
|--------------|---------------|
|--------------|---------------|
|--------------|---------------|


  Q  E Q  E Q    +E  Q.   H
|--------------|---------------|
|--------------|---------------|
|--------------|---------------|
|-3--2-3--5-5--|-(5)-5----5----|
|--------------|---------------|
|--------------|---------------|
|--------------|---------------|


 Drum Solo
  Wx2
|--------|
|--------|
|--------|
|--------|
|--------|
|--------|
|--------|


 Chorus
  D5                G5
  Gtr I
  W                 W
|-----------------|-----------------|
|-----------------|-----------------|
|-----------------|-----------------|
|-----------------|-5---------------|
|-5---------------|-5---------------|
|-5---------------|-3---------------|
|-5---------------|-----------------|
|
| Gtr II
| PM---------------------------------
| E E E E E E E E   E E E E E E E E
|-----------------|-----------------|
|-----------------|-----------------|
|-----------------|-----------------|
|-----------------|-5-5-5-5-5-5-5-5-|
|-5-5-5-5-5-5-5-5-|-5-5-5-5-5-5-5-5-|
|-5-5-5-5-5-5-5-5-|-3-3-3-3-3-3-3-3-|
|-5-5-5-5-5-5-5-5-|-----------------|


  Bb5               C5
  W                  W
|-----------------|-------------------------|
|-----------------|-------------------------|
|-----------------|-------------------------|
|-8---------------|-10----------------------|
|-8---------------|-10----------------------|
|-6---------------|--8----------------------|
|-----------------|-------------------------|
|
|----------------------------------------|
| E E E E E E E E    E  E  E  E  E  E  E  E
|-----------------|-------------------------|
|-----------------|-------------------------|
|-----------------|-------------------------|
|-8-8-8-8-8-8-8-8-|-10-10-10-10-10-10-10-10-|
|-8-8-8-8-8-8-8-8-|-10-10-10-10-10-10-10-10-|
|-6-6-6-6-6-6-6-6-|--8--8--8--8--8--8--8--8-|
|-----------------|-------------------------|


  D5                G5                F5        G5
  W                 W                 Q.   Q.   Q    +W
|-----------------|-----------------|--------------|---------------|
|-----------------|-----------------|--------------|---------------|
|-----------------|-----------------|--------------|---------------|
|-----------------|-5---------------|-3----3----5--|-(5)-----------|
|-5---------------|-5---------------|-3----3----5--|-(5)-----------|
|-5---------------|-3---------------|-1----1----3--|-(3)-----------|
|-5---------------|-----------------|--------------|---------------|
|
| PM------------------------------|
| E E E E E E E E   E E E E E E E E   Q.   Q.   Q    +W
|-----------------|-----------------|--------------|---------------|
|-----------------|-----------------|--------------|---------------|
|-----------------|-----------------|--------------|---------------|
|-----------------|-5-5-5-5-5-5-5-5-|-3----3----5--|-(5)-----------|
|-5-5-5-5-5-5-5-5-|-5-5-5-5-5-5-5-5-|-3----3----5--|-(5)-----------|
|-5-5-5-5-5-5-5-5-|-3-3-3-3-3-3-3-3-|-1----1----3--|-(3)-----------|
|-5-5-5-5-5-5-5-5-|-----------------|--------------|---------------|
|
| Gtr III
| W                 W                 W               H.      E  E
|-----------------|-----------------|--------------|---------------|
|-----------------|-----------------|--------------|---------------|
|-----------------|-----------------|--------------|----------9-10-|
|-----------------|-----------------|--------------|---------------|
|-----------------|-----------------|--------------|---------------|
|-----------------|-----------------|--------------|---------------|
|-----------------|-----------------|--------------|---------------|


  D5                 G5
  Gtr I
   W                  W
|------------------|------------------|
|------------------|------------------|
|------------------|------------------|
|------------------|--5---------------|
|--5---------------|--5---------------|
|--5---------------|--3---------------|
|--5---------------|------------------|
|
| Gtr II
|  PM----------------------------------
|  E E E E E E E E    E E E E E E E E
|------------------|------------------|
|------------------|------------------|
|------------------|------------------|
|------------------|--5-5-5-5-5-5-5-5-|
|--5-5-5-5-5-5-5-5-|--5-5-5-5-5-5-5-5-|
|--5-5-5-5-5-5-5-5-|--3-3-3-3-3-3-3-3-|
|--5-5-5-5-5-5-5-5-|------------------|
|
| Gtr III
|  W                  Q   Q   Q   Q
|------------------|------------------|
|------------------|------------------|
|-12---------------|-10---9---7---7---|
|------------------|------------------|
|------------------|------------------|
|------------------|------------------|
|------------------|------------------|


  Bb5                  C5
    W                   W
|--------------------|-------------------------|
|--------------------|-------------------------|
|--------------------|-------------------------|
|---8----------------|-10----------------------|
|---8----------------|-10----------------------|
|---6----------------|--8----------------------|
|--------------------|-------------------------|
|
|-------------------------------------------|
|   E E  E E E E E E    E  E  E  E  E  E  E  E
|--------------------|-------------------------|
|--------------------|-------------------------|
|--------------------|-------------------------|
|---8-8--8-8-8-8-8-8-|-10-10-10-10-10-10-10-10-|
|---8-8--8-8-8-8-8-8-|-10-10-10-10-10-10-10-10-|
|---6-6--6-6-6-6-6-6-|--8--8--8--8--8--8--8--8-|
|--------------------|-------------------------|
|
|   Q    Q   Q   Q      W
|-/12---10---8---8---|--8----------------------|
|--------------------|-------------------------|
|--------------------|-------------------------|
|--------------------|-------------------------|
|--------------------|-------------------------|
|--------------------|-------------------------|
|--------------------|-------------------------|


  D5                G5                F5             G5
  W                 W                  Q.     Q.      Q     +W
|-----------------|-----------------|--------------------|---------|
|-----------------|-----------------|--------------------|---------|
|-----------------|-----------------|--------------------|---------|
|-----------------|-5---------------|--3------3-------5--|--(5)----|
|-5---------------|-5---------------|--3------3-------5--|--(5)----|
|-5---------------|-3---------------|--1------1-------3--|--(3)----|
|-5---------------|-----------------|--------------------|---------|
|
| PM------------------------------|
| E E E E E E E E   E E E E E E E E    Q.     Q.      Q     +W
|-----------------|-----------------|--------------------|---------|
|-----------------|-----------------|--------------------|---------|
|-----------------|-----------------|--------------------|---------|
|-----------------|-5-5-5-5-5-5-5-5-|--3------3-------5--|--(5)----|
|-5-5-5-5-5-5-5-5-|-5-5-5-5-5-5-5-5-|--3------3-------5--|--(5)----|
|-5-5-5-5-5-5-5-5-|-3-3-3-3-3-3-3-3-|--1------1-------3--|--(3)----|
|-5-5-5-5-5-5-5-5-|-----------------|--------------------|---------|
|
| W                 W                  Q   E  Q    E  Q     +W
|-----------------|-----------------|--------------------|---------|
|-----------------|-----------------|--------------------|---------|
|-----------------|-----------------|-10---8-10---12-12--|-(12)----|
|-----------------|-----------------|--------------------|---------|
|-----------------|-----------------|--------------------|---------|
|-----------------|-----------------|--------------------|---------|
|-----------------|-----------------|--------------------|---------|


   Outro
    F5        G5                  F5        G5
    Gtr I
    Q.   Q.   Q    +W             Q.   Q.   Q    +W
||---------------|-------------||--------------|---------*|
||---------------|-------------||--------------|---------*|
||o--------------|------------o||--------------|---------*|
||--3----3----5--|-(5)---------||-3----3----5--|-(5)\----*|
||o-3----3----5--|-(5)--------o||-3----3----5--|-(5)\----*|
||--1----1----3--|-(3)---------||-1----1----3--|-(3)\----*|
||---------------|-------------||--------------|---------*|
|
|   Gtr II
|   Q.   Q.   Q    +W             Q.   Q.   Q    +W
||---------------|-------------||--------------|---------*|
||---------------|-------------||--------------|---------*|
||o--------------|------------o||--------------|---------*|
||--3----3----5--|-(5)---------||-3----3----5--|-(5)\----*|
||o-3----3----5--|-(5)--------o||-3----3----5--|-(5)\----*|
||--1----1----3--|-(3)---------||-1----1----3--|-(3)\----*|
||---------------|-------------||--------------|---------*|



Duration Legend
---------------
W - whole; H - half; Q - quarter; E - 8th; S - 16th; T - 32nd; X - 64th; a - acciaccatura
+ - note tied to previous; . - note dotted; .. - note double dotted
Uncapitalized letters represent notes that are staccato (1/2 duration)
Irregular groupings are notated above the duration line
Duration letters will always appear directly above the note/fret number it represents the
duration for.  Duration letters with no fret number below them represent rests.  Multi-
bar rests are notated in the form Wxn, where n is the number of bars to rest for.  Low
melody durations appear below the staff

Tablature Legend
----------------
 h   - hammer-on
 p   - pull-off
 b   - bend
 pb  - pre-bend
 r   - bend release (if no number after the r, then release immediately)
 /\  - slide into or out of (from/to "nowhere")
 s   - legato slide
 S   - shift slide
 - natural harmonic
[n]  - artificial harmonic
n(n) - tapped harmonic
 ~   - vibrato
 tr  - trill
 T   - tap
 TP  - trem. picking
 PM  - palm muting
\n/  - tremolo bar dip; n = amount to dip
 \n  - tremolo bar down
 n/  - tremolo bar up
/n\  - tremolo bar inverted dip
 =   - hold bend; also acts as connecting device for hammers/pulls
 <> - volume swell (louder/softer)
 x   - on rhythm slash represents muted slash
 o   - on rhythm slash represents single note slash

Misc Legend
-----------
 |  - bar
||  - double bar
||o - repeat start
o|| - repeat end
*|  - double bar (ending)
 :  - bar (freetime)
 $  - Segno
 &  - Coda
Tempo markers -  = BPM(8/16=s8/s16), where s8 = swing 8ths, s16 = swing 16ths

Добавлено: 14.10.2013
Другие материалы по этой песне:
  • Аккорды и текст

Страница создана 14.10.2013
http://primanota.ru/overkill/black-line-chords.htm
Привет, Гость.
Предлагаем пройти революционный курс по гитаре.
Подарок от PrimaNota.Ru, забирай!