PrimaNota.ru - самый крупный в мире бесплатный архив песенных текстов, аккордов, табулатур и нот


Overcome - Reconstruction - текст песни, таба, видео

Регистрация Запомнить меня
Войти через:  Facebook Google Twitter Vk Yandex Mail.ru

Overcome - Reconstruction - текст песни, таба, видео

Печатать
Просмотров: 93
		   Author/Artist: Overcome
Title: Reconstruction
Album: When Beauty Dies
Transcribed by: John Farthing
Email: spamboy@mindless.com


This song is in drop d tuning, and played blazing fast

Intro, and first part of verse
------------------------------------------------------------------------------
------------------------------------------------------------------------------
------------------------------------------------------------------------------
-0-0-0----6-6-6\1--0-0-0-----9p7p6-9p7p6--9-----------------------------------
-0-0-0----6-6-6\1--0-0-0-----9p7p6-9p7p6--9-----------------------------------
-0-0-0----6-6-6\1--0-0-0-----9p7p6-9p7p6--9-----------------------------------
                                                                              

second part of verse
-------------9--8h9p8h9p8h9p8----------------------------------------9--------
-------8--7----------------------------------------------------8--7-----------
------------------------------------------------------------------------------
-0--------------------------------------------------------0-------------------
-0-------------------------------5--3--2--0---------------0-------------------
-0-------------------------------------------5--3--2--1---0-------------------
                                                                              
 
-8h9p8h9p8h9p8----------------------------------------------------------------
------------------------------------------------------------------------------
------------------------------------------------------------------------------
-----------------5---8---7-----5---8---7--0-----------------------------------
-----------------5---8---7-----5---8---7--0-----------------------------------
-----------------5---8---7-----5---8---7--0-----------------------------------

i know those 587 chords aren't right, but there're close


                                                                              


cool screaming part near the end of the track:
----------------------------------------|-------------------------------------
----------------------------------------|-------------------------------------
----------------------------------------|-------------------------------------
-0---0-5-7-0---0-5-7-0---0-5-7-5-1-0----|-0--0-5-7-5-3-2-5-3-2--0-------------
-0---0-5-7-0---0-5-7-0---0-5-7-5-1-0----|-0--0-5-7-5-3-2-5-3-2--0-------------
-0---0-5-7-0---0-5-7-0---0-5-7-5-1-0----|-0--0-5-7-5-3-2-5-3-2--0-------------


If anybody has any other tab from Songs From the Penalty Box please send them to me.
                                                                              

     
Добавлено: 16.07.2013
Другие материалы по этой песне:
  • Аккорды и текст

Страница создана 12.06.2012
http://primanota.ru/overcome/reconstruction-chords.htm
Привет, Гость.
Предлагаем пройти революционный курс по гитаре.
Подарок от PrimaNota.Ru, забирай!