PrimaNota.ru - самый крупный в мире бесплатный архив песенных текстов, аккордов, табулатур и нот


Outsiders - Zsarrahh - аккорды и текст, видео

Регистрация Запомнить меня
Войти через:  Facebook Google Twitter Vk Yandex Mail.ru

Outsiders - Zsarrahh - аккорды и текст, видео

Печатать
Просмотров: 31
Zsarrahh
Outsiders
The Outsiders - Zsarrahh


INTRO (in D)

e|--12---10-10-------------------------------------|
B|--------------12-12-10-----------10---10-12-10---|
G|-------------------------11-9-11-----------------|
D|-------------------------------------------------|
A|-------------------------------------------------|
E|-------------------------------------------------|

how are you, what do you want

e|--12-10--12-10--------------------------------------|
B|-----------------12-12-10-----------10---10-12-10---|
G|----------------------------11-9-11-----------------|
D|----------------------------------------------------|
A|----------------------------------------------------|
E|----------------------------------------------------|

how are you, what do you want

e|--12-10-12-10-12-10-12-10---------------------------------|
B|--------------------------12-10-----------10---10-12-10---|
G|----------------------------------11-9-11-----------------|
D|----------------------------------------------------------|
A|----------------------------------------------------------|
E|----------------------------------------------------------|

how are you, what do you want

e|--12-10-12-10-12-10-12-10---------------------------------|
B|--------------------------12-10-----------10---10-12-10---|
G|----------------------------------11-9-11-----------------|
D|----------------------------------------------------------|
A|----------------------------------------------------------|
E|----------------------------------------------------------|

how are you, what do you want

CHORUS
F                  Ab   G       D        \ 2x
Zsarrahh, have you ever seen my face     /

e|-------------------------5-5-------12-10---------------|
B|-6--6---6--8--9-9--8--6------------------12-10-12-10---|
G|-------------------------------------------------------|
D|-------------------------------------------------------|
A|-------------------------------------------------------|
E|-------------------------------------------------------|

VERSE 1
A    A7            A    A7    
 you take what you need
        D    Dsus4  D  Dsus4
so they say about you
    A    A7          A    A7
you fake when you're meek
         D  Dsus4  D   Dsus4
I know a lot about you

CHORUS
F                  Ab   G       D        \ 2x
Zsarrahh, have you ever seen my face     /

e|-------------------------5-5-------12-10---------------|
B|-6--6---6--8--9-9--8--6------------------12-10-12-10---|
G|-------------------------------------------------------|
D|-------------------------------------------------------|
A|-------------------------------------------------------|
E|-------------------------------------------------------|

BRIDGE

   A
e|----------------------------|
B|-----10-8--10-----10--8-----| play throughout
G|-9-------------9------------| bridge        
D|----------------------------|
A|----------------------------|
E|----------------------------|
see, I'm different
I'm not your kind
I got no reason to be
kind at all
you're not relaxed
and you carry an axe
I don't think
I like you at all
heh heh heh heh heh heh heh heh heh

CHORUS
C                  Eb   D       A        \ 2x
Zsarrahh, have you ever seen my face     /

e|-8--8---8--10-11-11--10--8--5-5-----------|
B|------------------------------------------|
G|------------------------------------------|
D|------------------------------------------|
A|------------------------------------------|
E|------------------------------------------|

VERSE 2
         E
when the sun goes down 
                         Asus4
you drop down from cloud nine, and then
    E
you peep through windows the last few days
Asus4
this ain't coincidence

CHORUS
F                  Ab   G       D        \ 2x
Zsarrahh, have you ever seen my face     /

e|-------------------------5-5-------12-10---------------|
B|-6--6---6--8--9-9--8--6------------------12-10-12-10---|
G|-------------------------------------------------------|
D|-------------------------------------------------------|
A|-------------------------------------------------------|
E|-------------------------------------------------------|

e|-------------------------5-5-5---5-5-5--5-5-5----------|
B|-6--6---6--8--9-9--8--6--------------------------------|
G|-------------------------------------------------------|
D|-------------------------------------------------------|
A|-------------------------------------------------------|
E|-------------------------------------------------------|

OUTRO
    D
e|--12---10-10-------------------------------------|
B|--------------12-12-10-----------10---10-12-10---|
G|-------------------------11-9-11-----------------|
D|-------------------------------------------------|
A|-------------------------------------------------|
E|-------------------------------------------------|

how are you, what do you want

e|--12-10-12-10-12-10-12-10---------------------------------|
B|--------------------------12-10-----------10---10-12-10---|
G|----------------------------------11-9-11-----------------|
D|----------------------------------------------------------|
A|----------------------------------------------------------|
E|----------------------------------------------------------|

how are you, what do you want

e|-12-12-12-10-12-10-12-10-12-10---------------------------------|
B|-------------------------------12-10-----------10---10-12-10---|
G|---------------------------------------11-9-11-----------------|
D|---------------------------------------------------------------|
A|---------------------------------------------------------------|
E|---------------------------------------------------------------|

how are you, what do you want
Добавлено: 02.06.2016
Вам также может быть интересно:
Другие материалы по этой песне:
  • Аккорды и текст

Страница создана 02.06.2016
http://primanota.ru/outsiders/zsarrahh-chords.htm
Привет, Гость.
Предлагаем пройти революционный курс по гитаре.
Подарок от PrimaNota.Ru, забирай!