PrimaNota.ru - самый крупный в мире бесплатный архив песенных текстов, аккордов, табулатур и нот


Outsiders - Wish You Were Here With Me Today - таба, видео

Регистрация Запомнить меня
Войти через:  Facebook Google Twitter Vk Yandex Mail.ru

Outsiders - Wish You Were Here With Me Today - таба, видео

Печатать
Просмотров: 54
The Outsiders - Wish You Were Here With Me Today

e|-----------------|
B|-----------------|
G|-----------------|
D|-------0-----0---|
A|-----2-----2-----|
E|-0h3-------------|

(the way the chords are played during the verses)
   Em               Am               Bm
e|----------------|----------------|----------------|
B|----------------|----------------|----------------|
G|----------------|----------------|----------------|
D|----------------|-----2---0------|-----4---2------|
A|-----2---0------|-0----------2---|-2----------4---|
E|-0----------2---|----------------|----------------|

VERSE 1
Em
Time is moving slowly
My mind is moving fast
Am
Things I see seem lonely
    Em
But that's just of the past
Bm            Am             Em
Wish you were here with me today

VERSE 2
Em
Need you here tonight love
Hold you without touch
Am
Feel you here inside love
Em
Need you far too much
Bm            Am             Em
Wish you were here with me today

RIFF
   Em                                       Am                              Em
e|--------------------------------|      e|---------------------------------------------------------------|
B|--------------------------------|      B|---------------------------------------------------------------|
G|--------------------------------|      G|---------------------------------------------------------------|
D|--------------------------------| \    D|-2-2-0-0-------------------------------------------------------|
A|-2-2-0-0------------------------|  2x  A|---------3-3-2-2-0---0-0---0-0---2-2-0-0-----------------------|
E|---------3-3-2-2-0---0-0---0-0--| /    E|-----------------------------------------3-3-2-2-0---0-0---0-0-|

   Bm             Am            Em
e|------------------------------------------------------------|
B|------------------------------------------------------------|
G|------------------------------------------------------------|
D|-----4---2----------2---0-----------------------------------|
A|-2----------4---0----------2--2-2-0-0-----------------------|
E|--------------------------------------3-3-2-2-0---0-0---0-0-|

VERSE 3
Em
Wonder what you're doing
Wonder what you'll feel
Am
Feeling more than doing
 Em
Imagine how I feel
Bm            Am             Em
Wish you were here with me today

VERSE 4
Em
Life can be so wonderful
It begins and ends in you
Am
Happy and so beautiful
Em
When in love with you
Bm            Am             Em
Wish you were here with me today

RIFF
   Em                                       Am                              Em
e|--------------------------------|      e|---------------------------------------------------------------|
B|--------------------------------|      B|---------------------------------------------------------------|
G|--------------------------------|      G|---------------------------------------------------------------|
D|--------------------------------| \    D|-2-2-0-0-------------------------------------------------------|
A|-2-2-0-0------------------------|  2x  A|---------3-3-2-2-0---0-0---0-0---2-2-0-0-----------------------|
E|---------3-3-2-2-0---0-0---0-0--| /    E|-----------------------------------------3-3-2-2-0---0-0---0-0-|

OUTRO
Bm            Am             Em   \ 4x
Wish you were here with me today  /
Добавлено: 02.06.2016
Другие материалы по этой песне:
  • Аккорды и текст

Страница создана 02.06.2016
http://primanota.ru/outsiders/wish-you-were-here-with-me-today-chords.htm
Привет, Гость.
Предлагаем пройти революционный курс по гитаре.
Подарок от PrimaNota.Ru, забирай!