PrimaNota.ru - самый крупный в мире бесплатный архив песенных текстов, аккордов, табулатур и нот


Outsiders - Happyville - аккорды и текст, видео

Регистрация Запомнить меня
Войти через:  Facebook Google Twitter Vk Yandex Mail.ru

Outsiders - Happyville - аккорды и текст, видео

Печатать
Просмотров: 27
Happyville
Outsiders
The Outsiders - Happyville

INTRO RIFF (3x)
e|----------------------------|
B|----------------6--5--------|
G|---------------------7--5---|
D|-----------5----------------|
A|-5---5---8------------------|
E|----------------------------|
(take your clothes off -- we are coming)
(take your clothes off -- we are coming)
(take your clothes off -- we are coming)

G    \ 2x
F    /

VERSE 1
Ab
That's right you're going out of your mind
G
Up and down, you're doing it fine
     Bb
Your bony knees penetrate into my chest and
  D
I want to rest yes, I want to rest
I want to rest right now

CHORUS
A
I don't mind your enthusiasm
E
I don't mind your wild orgasm
A
I don't mind we are not alone
E
I don't mind we're not at home

      G
But I don't understand why you're selling tickets
         A
To those nasty guys, who don't wear ties
G
Please be kind and hand me my things and
D
Call my stand-in, call my stand-in
I won't be back again

INTRO RIFF (3x)
e|----------------------------|
B|----------------6--5--------|
G|---------------------7--5---|
D|-----------5----------------|
A|-5---5---8------------------|
E|----------------------------|
(take your clothes off -- we are coming)
(take your clothes off -- we are coming)
(take your clothes off -- we are coming)

G    \ 2x
F    /

SOLO (over verse chords)
Ab
G
Bb
D
D

CHORUS
A
I don't mind your enthusiasm
E
I don't mind your wild orgasm
A
I don't mind we are not alone
E
I don't mind we're not at home
      G
But I don't understand why you're selling tickets
         A
To those nasty guys, who don't wear ties
G
Please be kind and hand me my things and
D
Call my stand-in, call my stand-in
I won't be back again

OUTRO
e|----------------------------|
B|----------------6--5--------|
G|---------------------7--5---|
D|-----------5----------------|
A|-5---5---8------------------|
E|----------------------------|
(take your clothes off -- we are coming)
(take your clothes off -- we are coming)
(take your clothes off -- we are coming)
Добавлено: 02.06.2016
Другие материалы по этой песне:
  • Аккорды и текст

Страница создана 02.06.2016
http://primanota.ru/outsiders/happyville-chords.htm
Привет, Гость.
Предлагаем пройти революционный курс по гитаре.
Подарок от PrimaNota.Ru, забирай!